  0
SECTION
  2
HEADER
  9
$ACADVER
  1
AC1032
  9
$ACADMAINTVER
 90
      248
  9
$DWGCODEPAGE
  3
ANSI_936
  9
$LASTSAVEDBY
  1
83500
  9
$REQUIREDVERSIONS
160
                 0
  9
$INSBASE
 10
0.0
 20
0.0
 30
0.0
  9
$EXTMIN
 10
266.2481428787732
 20
158.1020862015443
 30
0.0
  9
$EXTMAX
 10
673.6700577348165
 20
284.1020859616915
 30
0.0
  9
$LIMMIN
 10
0.0
 20
0.0
  9
$LIMMAX
 10
420.0
 20
297.0
  9
$ORTHOMODE
 70
     0
  9
$REGENMODE
 70
     1
  9
$FILLMODE
 70
     1
  9
$QTEXTMODE
 70
     0
  9
$MIRRTEXT
 70
     0
  9
$LTSCALE
 40
1.0
  9
$ATTMODE
 70
     1
  9
$TEXTSIZE
 40
2.5
  9
$TRACEWID
 40
1.0
  9
$TEXTSTYLE
  7
Standard
  9
$CLAYER
  8
0
  9
$CELTYPE
  6
ByLayer
  9
$CECOLOR
 62
   256
  9
$CELTSCALE
 40
1.0
  9
$DISPSILH
 70
     0
  9
$DIMSCALE
 40
1.0
  9
$DIMASZ
 40
2.5
  9
$DIMEXO
 40
0.625
  9
$DIMDLI
 40
3.75
  9
$DIMRND
 40
0.0
  9
$DIMDLE
 40
0.0
  9
$DIMEXE
 40
1.25
  9
$DIMTP
 40
0.0
  9
$DIMTM
 40
0.0
  9
$DIMTXT
 40
2.5
  9
$DIMCEN
 40
2.5
  9
$DIMTSZ
 40
0.0
  9
$DIMTOL
 70
     0
  9
$DIMLIM
 70
     0
  9
$DIMTIH
 70
     0
  9
$DIMTOH
 70
     0
  9
$DIMSE1
 70
     0
  9
$DIMSE2
 70
     0
  9
$DIMTAD
 70
     1
  9
$DIMZIN
 70
     8
  9
$DIMBLK
  1

  9
$DIMASO
 70
     1
  9
$DIMSHO
 70
     1
  9
$DIMPOST
  1

  9
$DIMAPOST
  1

  9
$DIMALT
 70
     0
  9
$DIMALTD
 70
     3
  9
$DIMALTF
 40
0.03937007874016
  9
$DIMLFAC
 40
1.0
  9
$DIMTOFL
 70
     1
  9
$DIMTVP
 40
0.0
  9
$DIMTIX
 70
     0
  9
$DIMSOXD
 70
     0
  9
$DIMSAH
 70
     0
  9
$DIMBLK1
  1

  9
$DIMBLK2
  1

  9
$DIMSTYLE
  2
ISO-25
  9
$DIMCLRD
 70
     0
  9
$DIMCLRE
 70
     0
  9
$DIMCLRT
 70
     0
  9
$DIMTFAC
 40
1.0
  9
$DIMGAP
 40
0.625
  9
$DIMJUST
 70
     0
  9
$DIMSD1
 70
     0
  9
$DIMSD2
 70
     0
  9
$DIMTOLJ
 70
     0
  9
$DIMTZIN
 70
     8
  9
$DIMALTZ
 70
     0
  9
$DIMALTTZ
 70
     0
  9
$DIMUPT
 70
     0
  9
$DIMDEC
 70
     2
  9
$DIMTDEC
 70
     2
  9
$DIMALTU
 70
     2
  9
$DIMALTTD
 70
     3
  9
$DIMTXSTY
  7
Standard
  9
$DIMAUNIT
 70
     0
  9
$DIMADEC
 70
     0
  9
$DIMALTRND
 40
0.0
  9
$DIMAZIN
 70
     0
  9
$DIMDSEP
 70
    46
  9
$DIMATFIT
 70
     3
  9
$DIMFRAC
 70
     0
  9
$DIMLDRBLK
  1

  9
$DIMLUNIT
 70
     2
  9
$DIMLWD
 70
    -2
  9
$DIMLWE
 70
    -2
  9
$DIMTMOVE
 70
     0
  9
$DIMFXL
 40
1.0
  9
$DIMFXLON
 70
     0
  9
$DIMJOGANG
 40
1.570796326794896
  9
$DIMTFILL
 70
     0
  9
$DIMTFILLCLR
 70
     0
  9
$DIMARCSYM
 70
     0
  9
$DIMLTYPE
  6

  9
$DIMLTEX1
  6

  9
$DIMLTEX2
  6

  9
$DIMTXTDIRECTION
 70
     0
  9
$LUNITS
 70
     2
  9
$LUPREC
 70
     4
  9
$SKETCHINC
 40
1.0
  9
$FILLETRAD
 40
0.0
  9
$AUNITS
 70
     0
  9
$AUPREC
 70
     0
  9
$MENU
  1
.
  9
$ELEVATION
 40
0.0
  9
$PELEVATION
 40
0.0
  9
$THICKNESS
 40
0.0
  9
$LIMCHECK
 70
     0
  9
$CHAMFERA
 40
0.0
  9
$CHAMFERB
 40
0.0
  9
$CHAMFERC
 40
0.0
  9
$CHAMFERD
 40
0.0
  9
$SKPOLY
 70
     0
  9
$TDCREATE
 40
2460928.646296296
  9
$TDUCREATE
 40
2460928.312962963
  9
$TDUPDATE
 40
2460928.656203704
  9
$TDUUPDATE
 40
2460928.322870370
  9
$TDINDWG
 40
0.0099074074
  9
$TDUSRTIMER
 40
0.0099074074
  9
$USRTIMER
 70
     1
  9
$ANGBASE
 50
0.0
  9
$ANGDIR
 70
     0
  9
$PDMODE
 70
     0
  9
$PDSIZE
 40
0.0
  9
$PLINEWID
 40
0.0
  9
$SPLFRAME
 70
     0
  9
$SPLINETYPE
 70
     6
  9
$SPLINESEGS
 70
     8
  9
$HANDSEED
  5
51B
  9
$SURFTAB1
 70
     6
  9
$SURFTAB2
 70
     6
  9
$SURFTYPE
 70
     6
  9
$SURFU
 70
     6
  9
$SURFV
 70
     6
  9
$UCSBASE
  2

  9
$UCSNAME
  2

  9
$UCSORG
 10
0.0
 20
0.0
 30
0.0
  9
$UCSXDIR
 10
1.0
 20
0.0
 30
0.0
  9
$UCSYDIR
 10
0.0
 20
1.0
 30
0.0
  9
$UCSORTHOREF
  2

  9
$UCSORTHOVIEW
 70
     0
  9
$UCSORGTOP
 10
0.0
 20
0.0
 30
0.0
  9
$UCSORGBOTTOM
 10
0.0
 20
0.0
 30
0.0
  9
$UCSORGLEFT
 10
0.0
 20
0.0
 30
0.0
  9
$UCSORGRIGHT
 10
0.0
 20
0.0
 30
0.0
  9
$UCSORGFRONT
 10
0.0
 20
0.0
 30
0.0
  9
$UCSORGBACK
 10
0.0
 20
0.0
 30
0.0
  9
$PUCSBASE
  2

  9
$PUCSNAME
  2

  9
$PUCSORG
 10
0.0
 20
0.0
 30
0.0
  9
$PUCSXDIR
 10
1.0
 20
0.0
 30
0.0
  9
$PUCSYDIR
 10
0.0
 20
1.0
 30
0.0
  9
$PUCSORTHOREF
  2

  9
$PUCSORTHOVIEW
 70
     0
  9
$PUCSORGTOP
 10
0.0
 20
0.0
 30
0.0
  9
$PUCSORGBOTTOM
 10
0.0
 20
0.0
 30
0.0
  9
$PUCSORGLEFT
 10
0.0
 20
0.0
 30
0.0
  9
$PUCSORGRIGHT
 10
0.0
 20
0.0
 30
0.0
  9
$PUCSORGFRONT
 10
0.0
 20
0.0
 30
0.0
  9
$PUCSORGBACK
 10
0.0
 20
0.0
 30
0.0
  9
$USERI1
 70
     0
  9
$USERI2
 70
     0
  9
$USERI3
 70
     0
  9
$USERI4
 70
     0
  9
$USERI5
 70
     0
  9
$USERR1
 40
0.0
  9
$USERR2
 40
0.0
  9
$USERR3
 40
0.0
  9
$USERR4
 40
0.0
  9
$USERR5
 40
0.0
  9
$WORLDVIEW
 70
     1
  9
$SHADEDGE
 70
     3
  9
$SHADEDIF
 70
    70
  9
$TILEMODE
 70
     1
  9
$MAXACTVP
 70
    64
  9
$PINSBASE
 10
0.0
 20
0.0
 30
0.0
  9
$PLIMCHECK
 70
     0
  9
$PEXTMIN
 10
29.69683227539063
 20
20.99733276367186
 30
0.0
  9
$PEXTMAX
 10
267.2714904785156
 20
188.9759948730469
 30
0.0
  9
$PLIMMIN
 10
0.0
 20
0.0
  9
$PLIMMAX
 10
297.0
 20
210.0
  9
$UNITMODE
 70
     0
  9
$VISRETAIN
 70
     1
  9
$PLINEGEN
 70
     0
  9
$PSLTSCALE
 70
     1
  9
$TREEDEPTH
 70
  3020
  9
$CMLSTYLE
  2
Standard
  9
$CMLJUST
 70
     0
  9
$CMLSCALE
 40
20.0
  9
$PROXYGRAPHICS
 70
     1
  9
$MEASUREMENT
 70
     1
  9
$CELWEIGHT
370
    -1
  9
$ENDCAPS
280
     0
  9
$JOINSTYLE
280
     0
  9
$LWDISPLAY
290
     0
  9
$INSUNITS
 70
     4
  9
$HYPERLINKBASE
  1

  9
$STYLESHEET
  1

  9
$XEDIT
290
     1
  9
$CEPSNTYPE
380
     0
  9
$PSTYLEMODE
290
     1
  9
$FINGERPRINTGUID
  2
{78B91D37-EF4C-E647-A087-7EEEFF2E1003}
  9
$VERSIONGUID
  2
{5CDE5142-4C84-0F4E-9E4D-B95F156E10A7}
  9
$EXTNAMES
290
     1
  9
$PSVPSCALE
 40
0.0
  9
$OLESTARTUP
290
     0
  9
$SORTENTS
280
   127
  9
$INDEXCTL
280
     0
  9
$HIDETEXT
280
     1
  9
$XCLIPFRAME
280
     2
  9
$HALOGAP
280
     0
  9
$OBSCOLOR
 70
   257
  9
$OBSLTYPE
280
     0
  9
$INTERSECTIONDISPLAY
280
     0
  9
$INTERSECTIONCOLOR
 70
   257
  9
$DIMASSOC
280
     2
  9
$PROJECTNAME
  1

  9
$CAMERADISPLAY
290
     0
  9
$LENSLENGTH
 40
50.0
  9
$CAMERAHEIGHT
 40
0.0
  9
$STEPSPERSEC
 40
2.0
  9
$STEPSIZE
 40
6.0
  9
$3DDWFPREC
 40
2.0
  9
$PSOLWIDTH
 40
0.25
  9
$PSOLHEIGHT
 40
4.0
  9
$LOFTANG1
 40
1.570796326794896
  9
$LOFTANG2
 40
1.570796326794896
  9
$LOFTMAG1
 40
0.0
  9
$LOFTMAG2
 40
0.0
  9
$LOFTPARAM
 70
     7
  9
$LOFTNORMALS
280
     1
  9
$LATITUDE
 40
37.795
  9
$LONGITUDE
 40
-122.394
  9
$NORTHDIRECTION
 40
0.0
  9
$TIMEZONE
 70
 -8000
  9
$LIGHTGLYPHDISPLAY
280
     1
  9
$TILEMODELIGHTSYNCH
280
     1
  9
$CMATERIAL
347
11
  9
$SOLIDHIST
280
     0
  9
$SHOWHIST
280
     1
  9
$DWFFRAME
280
     2
  9
$DGNFRAME
280
     0
  9
$REALWORLDSCALE
290
     1
  9
$INTERFERECOLOR
 62
     1
  9
$INTERFEREOBJVS
345
33
  9
$INTERFEREVPVS
346
30
  9
$CSHADOW
280
     0
  9
$SHADOWPLANELOCATION
 40
0.0
  0
ENDSEC
  0
SECTION
  2
CLASSES
  0
CLASS
  1
ACDBDICTIONARYWDFLT
  2
AcDbDictionaryWithDefault
  3
ObjectDBX Classes
 90
        0
 91
        1
280
     0
281
     0
  0
CLASS
  1
MATERIAL
  2
AcDbMaterial
  3
ObjectDBX Classes
 90
     1153
 91
        3
280
     0
281
     0
  0
CLASS
  1
VISUALSTYLE
  2
AcDbVisualStyle
  3
ObjectDBX Classes
 90
     4095
 91
       24
280
     0
281
     0
  0
CLASS
  1
SCALE
  2
AcDbScale
  3
ObjectDBX Classes
 90
     1153
 91
       17
280
     0
281
     0
  0
CLASS
  1
TABLESTYLE
  2
AcDbTableStyle
  3
ObjectDBX Classes
 90
     4095
 91
        2
280
     0
281
     0
  0
CLASS
  1
MLEADERSTYLE
  2
AcDbMLeaderStyle
  3
ACDB_MLEADERSTYLE_CLASS
 90
     4095
 91
        1
280
     0
281
     0
  0
CLASS
  1
ACDBSECTIONVIEWSTYLE
  2
AcDbSectionViewStyle
  3
ObjectDBX Classes
 90
     1025
 91
        1
280
     0
281
     0
  0
CLASS
  1
ACDBDETAILVIEWSTYLE
  2
AcDbDetailViewStyle
  3
ObjectDBX Classes
 90
     1025
 91
        1
280
     0
281
     0
  0
CLASS
  1
DICTIONARYVAR
  2
AcDbDictionaryVar
  3
ObjectDBX Classes
 90
        0
 91
       16
280
     0
281
     0
  0
CLASS
  1
SORTENTSTABLE
  2
AcDbSortentsTable
  3
ObjectDBX Classes
 90
        0
 91
        4
280
     0
281
     0
  0
CLASS
  1
CELLSTYLEMAP
  2
AcDbCellStyleMap
  3
ObjectDBX Classes
 90
     1152
 91
        2
280
     0
281
     0
  0
ENDSEC
  0
SECTION
  2
TABLES
  0
TABLE
  2
VPORT
  5
8
330
0
100
AcDbSymbolTable
 70
     1
  0
VPORT
  5
57
330
8
100
AcDbSymbolTableRecord
100
AcDbViewportTableRecord
  2
*Active
 70
     0
 10
0.0
 20
0.0
 11
1.0
 21
1.0
 12
478.5562099564511
 22
200.3041058828066
 13
0.0
 23
0.0
 14
10.0
 24
10.0
 15
10.0
 25
10.0
 16
0.0
 26
0.0
 36
1.0
 17
0.0
 27
0.0
 37
0.0
 40
204.0446997614847
 41
2.528656126482213
 42
50.0
 43
0.0
 44
0.0
 50
0.0
 51
0.0
 71
     0
 72
  1000
 73
     1
 74
     3
 75
     0
 76
     0
 77
     0
 78
     0
281
     0
 65
     1
110
0.0
120
0.0
130
0.0
111
1.0
121
0.0
131
0.0
112
0.0
122
1.0
132
0.0
 79
     0
146
0.0
348
2F
 60
     3
 61
     5
292
     1
282
     1
141
0.0
142
0.0
 63
   250
421
  3355443
1001
ACAD_NAV_VCDISPLAY
1070
     1
  0
ENDTAB
  0
TABLE
  2
LTYPE
  5
5
330
0
100
AcDbSymbolTable
 70
     3
  0
LTYPE
  5
5B
330
5
100
AcDbSymbolTableRecord
100
AcDbLinetypeTableRecord
  2
ByBlock
 70
     0
  3

 72
    65
 73
     0
 40
0.0
  0
LTYPE
  5
5C
330
5
100
AcDbSymbolTableRecord
100
AcDbLinetypeTableRecord
  2
ByLayer
 70
     0
  3

 72
    65
 73
     0
 40
0.0
  0
LTYPE
  5
5D
330
5
100
AcDbSymbolTableRecord
100
AcDbLinetypeTableRecord
  2
Continuous
 70
     0
  3
Solid line
 72
    65
 73
     0
 40
0.0
  0
LTYPE
  5
80
330
5
100
AcDbSymbolTableRecord
100
AcDbLinetypeTableRecord
  2
CENTER
 70
     0
  3
Center ____ _ ____ _ ____ _ ____ _ ____ _ ____
 72
    65
 73
     4
 40
50.8
 49
31.75
 74
     0
 49
-6.349999999999999
 74
     0
 49
6.349999999999999
 74
     0
 49
-6.349999999999999
 74
     0
  0
ENDTAB
  0
TABLE
  2
LAYER
  5
2
102
{ACAD_XDICTIONARY
360
A0
102
}
330
0
100
AcDbSymbolTable
 70
     9
  0
LAYER
  5
54
330
2
100
AcDbSymbolTableRecord
100
AcDbLayerTableRecord
  2
0
 70
     0
 62
     7
  6
Continuous
370
    -3
390
F
347
21
348
0
  0
LAYER
  5
81
102
{ACAD_XDICTIONARY
360
82
102
}
330
2
100
AcDbSymbolTableRecord
100
AcDbLayerTableRecord
  2
1轮廓实线层
 70
     0
 62
   130
  6
Continuous
370
    30
390
F
347
21
348
0
  0
LAYER
  5
83
102
{ACAD_XDICTIONARY
360
84
102
}
330
2
100
AcDbSymbolTableRecord
100
AcDbLayerTableRecord
  2
2细线层
 70
     0
 62
     7
  6
Continuous
370
    -3
390
F
347
21
348
0
  0
LAYER
  5
85
102
{ACAD_XDICTIONARY
360
86
102
}
330
2
100
AcDbSymbolTableRecord
100
AcDbLayerTableRecord
  2
6文字层
 70
     0
 62
     3
  6
Continuous
370
    -3
390
F
347
21
348
0
  0
LAYER
  5
87
102
{ACAD_XDICTIONARY
360
88
102
}
330
2
100
AcDbSymbolTableRecord
100
AcDbLayerTableRecord
  2
7标注层
 70
     0
 62
     7
  6
Continuous
370
    -3
390
F
347
21
348
0
  0
LAYER
  5
89
330
2
100
AcDbSymbolTableRecord
100
AcDbLayerTableRecord
  2
Cont
 70
     0
 62
     4
  6
Continuous
370
    30
390
F
347
21
348
0
  0
LAYER
  5
8A
330
2
100
AcDbSymbolTableRecord
100
AcDbLayerTableRecord
  2
Dim
 70
     0
 62
     7
  6
Continuous
370
    -3
390
F
347
21
348
0
  0
LAYER
  5
8B
330
2
100
AcDbSymbolTableRecord
100
AcDbLayerTableRecord
  2
2
 70
     0
 62
     3
  6
CENTER
370
    -3
390
F
347
21
348
0
  0
LAYER
  5
8C
330
2
100
AcDbSymbolTableRecord
100
AcDbLayerTableRecord
  2
1.轮廓实线层
 70
     0
 62
     4
  6
Continuous
370
    30
390
F
347
21
348
0
1001
AcAecLayerStandard
1000

1000

  0
ENDTAB
  0
TABLE
  2
STYLE
  5
3
330
0
100
AcDbSymbolTable
 70
     5
  0
STYLE
  5
55
330
3
100
AcDbSymbolTableRecord
100
AcDbTextStyleTableRecord
  2
Standard
 70
     0
 40
0.0
 41
1.0
 50
0.0
 71
     0
 42
2.5
  3
txt
  4

  0
STYLE
  5
5A
330
3
100
AcDbSymbolTableRecord
100
AcDbTextStyleTableRecord
  2
Annotative
 70
     0
 40
0.0
 41
1.0
 50
0.0
 71
     0
 42
0.2
  3
txt
  4

1001
AcadAnnotative
1000
AnnotativeData
1002
{
1070
     1
1070
     1
1002
}
  0
STYLE
  5
8D
330
3
100
AcDbSymbolTableRecord
100
AcDbTextStyleTableRecord
  2
HZTXT
 70
     0
 40
3.5
 41
0.7
 50
0.0
 71
     0
 42
3.5
  3
romans.shx
  4
hz.shx
  0
STYLE
  5
8E
330
3
100
AcDbSymbolTableRecord
100
AcDbTextStyleTableRecord
  2
HZ
 70
     0
 40
0.0
 41
0.7
 50
0.0
 71
     0
 42
10.0
  3
romans.shx
  4
hz.shx
  0
STYLE
  5
8F
330
3
100
AcDbSymbolTableRecord
100
AcDbTextStyleTableRecord
  2
HGCAD
 70
     0
 40
0.0
 41
0.75
 50
0.0
 71
     0
 42
5.0
  3
gbenor.shx
  4
gbcbig.shx
  0
ENDTAB
  0
TABLE
  2
VIEW
  5
6
330
0
100
AcDbSymbolTable
 70
     8
  0
ENDTAB
  0
TABLE
  2
UCS
  5
7
330
0
100
AcDbSymbolTable
 70
     0
  0
ENDTAB
  0
TABLE
  2
APPID
  5
9
330
0
100
AcDbSymbolTable
 70
    13
  0
APPID
  5
56
330
9
100
AcDbSymbolTableRecord
100
AcDbRegAppTableRecord
  2
ACAD
 70
     0
  0
APPID
  5
5E
330
9
100
AcDbSymbolTableRecord
100
AcDbRegAppTableRecord
  2
AcadAnnotative
 70
     0
  0
APPID
  5
7D
330
9
100
AcDbSymbolTableRecord
100
AcDbRegAppTableRecord
  2
ACAD_NAV_VCDISPLAY
 70
     0
  0
APPID
  5
96
330
9
100
AcDbSymbolTableRecord
100
AcDbRegAppTableRecord
  2
ACAD_PSEXT
 70
     0
  0
APPID
  5
97
330
9
100
AcDbSymbolTableRecord
100
AcDbRegAppTableRecord
  2
ACAD_DSTYLE_DIMJAG
 70
     0
  0
APPID
  5
98
330
9
100
AcDbSymbolTableRecord
100
AcDbRegAppTableRecord
  2
ACAD_DSTYLE_DIMTALN
 70
     0
  0
APPID
  5
99
330
9
100
AcDbSymbolTableRecord
100
AcDbRegAppTableRecord
  2
AcAecLayerStandard
 70
     0
  0
APPID
  5
9A
330
9
100
AcDbSymbolTableRecord
100
AcDbRegAppTableRecord
  2
ACAD_DSTYLE_DIMBREAK
 70
     0
  0
APPID
  5
9B
330
9
100
AcDbSymbolTableRecord
100
AcDbRegAppTableRecord
  2
CDA_BG_MXB_T
 70
     0
  0
APPID
  5
9C
330
9
100
AcDbSymbolTableRecord
100
AcDbRegAppTableRecord
  2
CDA_SML_T
 70
     0
  0
APPID
  5
9D
330
9
100
AcDbSymbolTableRecord
100
AcDbRegAppTableRecord
  2
ACAD_DSTYLE_DIMJOGGED_JOGANGLE_SYMBOL
 70
     0
  0
APPID
  5
9E
330
9
100
AcDbSymbolTableRecord
100
AcDbRegAppTableRecord
  2
ACAD_DSTYLE_DIMTEXT_FILL
 70
     0
  0
APPID
  5
1C4
330
9
100
AcDbSymbolTableRecord
100
AcDbRegAppTableRecord
  2
ACAD_EXEMPT_FROM_CAD_STANDARDS
 70
     0
  0
ENDTAB
  0
TABLE
  2
DIMSTYLE
  5
A
330
0
100
AcDbSymbolTable
 70
     9
100
AcDbDimStyleTable
 71
     0
  0
DIMSTYLE
105
58
330
A
100
AcDbSymbolTableRecord
100
AcDbDimStyleTableRecord
  2
ISO-25
 70
     0
 41
2.5
 42
0.625
 43
3.75
 44
1.25
 50
90.0
 73
     0
 74
     0
 77
     1
 78
     8
140
2.5
141
2.5
143
0.03937007874016
147
0.625
171
     3
172
     1
271
     2
272
     2
274
     3
283
     0
284
     8
340
55
  0
DIMSTYLE
105
59
330
A
100
AcDbSymbolTableRecord
100
AcDbDimStyleTableRecord
  2
Annotative
 70
     0
340
55
1001
AcadAnnotative
1000
AnnotativeData
1002
{
1070
     1
1070
     1
1002
}
  0
DIMSTYLE
105
90
330
A
100
AcDbSymbolTableRecord
100
AcDbDimStyleTableRecord
  2
HGCAD
 70
     0
 41
2.5
 42
1.0
 43
0.0
 44
1.0
 50
90.0
 69
     1
 70
   256
 73
     0
 74
     0
 77
     1
 78
     8
 90
        1
140
3.5
141
0.0
146
0.375
147
1.0
172
     1
179
     1
271
     1
272
     2
279
     2
283
     0
289
     1
340
8F
1001
ACAD_DSTYLE_DIMJOGGED_JOGANGLE_SYMBOL
1070
   384
1040
1.570796326794896
1001
ACAD_DSTYLE_DIMTEXT_FILL
1070
   376
1070
     1
1070
   377
1004
1800000001000000000000C0000000000000000000000000
  0
DIMSTYLE
105
91
330
A
100
AcDbSymbolTableRecord
100
AcDbDimStyleTableRecord
  2
1
 70
     0
 41
2.5
 42
0.0
 43
9.0
 44
0.5
 50
90.0
 69
     1
 73
     0
 74
     0
 77
     1
140
3.0
141
0.0
146
0.375
147
1.0
172
     1
271
     0
272
     0
283
     0
340
8D
1001
ACAD_DSTYLE_DIMBREAK
1070
   391
1040
0.125
1001
ACAD_DSTYLE_DIMJAG
1070
   388
1040
1.5
1001
ACAD_DSTYLE_DIMTALN
1070
   392
1070
     0
1001
ACAD_DSTYLE_DIMJOGGED_JOGANGLE_SYMBOL
1070
   384
1040
1.570796326794896
1001
ACAD_DSTYLE_DIMTEXT_FILL
1070
   376
1070
     1
1070
   377
1004
1800000001000000000000C1000000000000000000000000
  0
DIMSTYLE
105
92
330
A
100
AcDbSymbolTableRecord
100
AcDbDimStyleTableRecord
  2
1 SP
 70
     0
 41
2.5
 42
0.0
 43
9.0
 44
0.5
 50
90.0
 77
     1
140
3.0
141
0.0
146
0.375
147
1.0
172
     1
174
     1
271
     0
272
     0
279
     1
283
     0
340
8D
1001
ACAD_DSTYLE_DIMBREAK
1070
   391
1040
0.125
1001
ACAD_DSTYLE_DIMJAG
1070
   388
1040
1.5
1001
ACAD_DSTYLE_DIMTALN
1070
   392
1070
     0
1001
AcadAnnotative
1000
AnnotativeData
1002
{
1070
     1
1070
     0
1002
}
1001
ACAD_DSTYLE_DIMJOGGED_JOGANGLE_SYMBOL
1070
   384
1040
1.570796326794896
  0
DIMSTYLE
105
93
330
A
100
AcDbSymbolTableRecord
100
AcDbDimStyleTableRecord
  2
装配图
 70
     0
 41
2.5
 42
0.0
 43
9.0
 44
0.5
 50
90.0
 69
     1
 73
     0
 74
     0
 77
     1
140
3.0
141
0.0
146
0.375
147
1.0
172
     1
271
     0
272
     0
283
     0
340
8D
1001
ACAD_DSTYLE_DIMBREAK
1070
   391
1040
0.125
1001
ACAD_DSTYLE_DIMJAG
1070
   388
1040
1.5
1001
ACAD_DSTYLE_DIMTALN
1070
   392
1070
     0
1001
ACAD_DSTYLE_DIMJOGGED_JOGANGLE_SYMBOL
1070
   384
1040
1.570796326794896
1001
ACAD_DSTYLE_DIMTEXT_FILL
1070
   376
1070
     1
1070
   377
1004
1800000001000000000000C1000000000000000000000000
  0
DIMSTYLE
105
94
330
A
100
AcDbSymbolTableRecord
100
AcDbDimStyleTableRecord
  2
管箱
 70
     0
 41
2.5
 42
0.0
 43
9.0
 44
0.5
 50
90.0
 69
     1
 73
     0
 74
     0
 77
     1
140
3.5
141
0.0
146
0.375
147
1.0
172
     1
271
     0
272
     0
283
     0
340
8D
1001
ACAD_DSTYLE_DIMBREAK
1070
   391
1040
0.125
1001
ACAD_DSTYLE_DIMJAG
1070
   388
1040
1.5
1001
ACAD_DSTYLE_DIMTALN
1070
   392
1070
     0
1001
ACAD_DSTYLE_DIMJOGGED_JOGANGLE_SYMBOL
1070
   384
1040
1.570796326794896
1001
ACAD_DSTYLE_DIMTEXT_FILL
1070
   376
1070
     1
1070
   377
1004
1800000001000000000000C1000000000000000000000000
  0
DIMSTYLE
105
95
330
A
100
AcDbSymbolTableRecord
100
AcDbDimStyleTableRecord
  2
管板1：4
 70
     0
 41
2.5
 42
0.0
 43
9.0
 44
0.5
 50
90.0
 69
     1
 73
     0
 74
     0
 77
     1
140
3.5
141
0.0
146
0.375
147
1.0
172
     1
271
     0
272
     0
283
     0
340
8D
1001
ACAD_DSTYLE_DIMBREAK
1070
   391
1040
0.125
1001
ACAD_DSTYLE_DIMJAG
1070
   388
1040
1.5
1001
ACAD_DSTYLE_DIMTALN
1070
   392
1070
     0
1001
ACAD_DSTYLE_DIMJOGGED_JOGANGLE_SYMBOL
1070
   384
1040
1.570796326794896
1001
ACAD_DSTYLE_DIMTEXT_FILL
1070
   376
1070
     1
1070
   377
1004
1800000001000000000000C1000000000000000000000000
  0
ENDTAB
  0
TABLE
  2
BLOCK_RECORD
  5
1
330
0
100
AcDbSymbolTable
 70
     9
  0
BLOCK_RECORD
  5
70
330
1
100
AcDbSymbolTableRecord
100
AcDbBlockTableRecord
  2
*Model_Space
340
73
 70
     0
280
     1
281
     0
  0
BLOCK_RECORD
  5
74
330
1
100
AcDbSymbolTableRecord
100
AcDbBlockTableRecord
  2
*Paper_Space
340
77
 70
     0
280
     1
281
     0
  0
BLOCK_RECORD
  5
6C
330
1
100
AcDbSymbolTableRecord
100
AcDbBlockTableRecord
  2
*Paper_Space0
340
6F
 70
     0
280
     1
281
     0
  0
BLOCK_RECORD
  5
31F
102
{ACAD_XDICTIONARY
360
3BE
102
}
330
1
100
AcDbSymbolTableRecord
100
AcDbBlockTableRecord
  2
A$Cfe87990e
340
0
 70
     4
280
     1
281
     0
  0
BLOCK_RECORD
  5
3CD
330
1
100
AcDbSymbolTableRecord
100
AcDbBlockTableRecord
  2
A$C2011cb47
340
0
 70
     4
280
     1
281
     0
  0
ENDTAB
  0
ENDSEC
  0
SECTION
  2
BLOCKS
  0
BLOCK
  5
71
330
70
100
AcDbEntity
  8
0
100
AcDbBlockBegin
  2
*Model_Space
 70
     0
 10
0.0
 20
0.0
 30
0.0
  3
*Model_Space
  1

  0
ENDBLK
  5
72
330
70
100
AcDbEntity
  8
0
100
AcDbBlockEnd
  0
BLOCK
  5
75
330
74
100
AcDbEntity
 67
     1
  8
0
100
AcDbBlockBegin
  2
*Paper_Space
 70
     0
 10
0.0
 20
0.0
 30
0.0
  3
*Paper_Space
  1

  0
ENDBLK
  5
76
330
74
100
AcDbEntity
 67
     1
  8
0
100
AcDbBlockEnd
  0
BLOCK
  5
6D
330
6C
100
AcDbEntity
 67
     1
  8
0
100
AcDbBlockBegin
  2
*Paper_Space0
 70
     0
 10
0.0
 20
0.0
 30
0.0
  3
*Paper_Space0
  1

  0
VIEWPORT
  5
3DA
102
{ACAD_XDICTIONARY
360
3DB
102
}
330
6C
100
AcDbEntity
 67
     1
  8
0
100
AcDbViewport
 10
148.5
 20
105.0
 30
0.0
 40
561.8168181818182
 41
222.18
 68
     1
 69
     1
 12
148.5
 22
105.0
 13
0.0
 23
0.0
 14
10.0
 24
10.0
 15
10.0
 25
10.0
 16
0.0
 26
0.0
 36
1.0
 17
0.0
 27
0.0
 37
0.0
 42
50.0
 43
0.0
 44
0.0
 45
222.18
 50
0.0
 51
0.0
 72
  1000
 90
   819232
  1

281
     0
 71
     1
 74
     0
110
0.0
120
0.0
130
0.0
111
1.0
121
0.0
131
0.0
112
0.0
122
1.0
132
0.0
 79
     0
146
0.0
170
     0
 61
     5
348
2F
292
     1
282
     1
141
0.0
142
0.0
 63
   250
421
  3355443
  0
VIEWPORT
  5
3DE
102
{ACAD_XDICTIONARY
360
3DF
102
}
330
6C
100
AcDbEntity
 67
     1
  8
0
100
AcDbViewport
 10
148.4841613769531
 20
104.9866638183593
 30
0.0
 40
237.574658203125
 41
167.978662109375
 68
     2
 69
     2
 12
346.0764667745842
 22
202.9609639005648
 13
0.0
 23
0.0
 14
10.0
 24
10.0
 15
10.0
 25
10.0
 16
0.0
 26
0.0
 36
1.0
 17
0.0
 27
0.0
 37
0.0
 42
50.0
 43
0.0
 44
0.0
 45
163.5567120080303
 50
0.0
 51
0.0
 72
  1000
 90
   819296
  1

281
     0
 71
     1
 74
     0
110
0.0
120
0.0
130
0.0
111
1.0
121
0.0
131
0.0
112
0.0
122
1.0
132
0.0
 79
     0
146
0.0
170
     0
 61
     5
348
2F
292
     1
282
     1
141
0.0
142
0.0
 63
   250
421
  3355443
  0
ENDBLK
  5
6E
330
6C
100
AcDbEntity
 67
     1
  8
0
100
AcDbBlockEnd
  0
BLOCK
  5
3C0
330
31F
100
AcDbEntity
  8
0
100
AcDbBlockBegin
  2
A$Cfe87990e
 70
     0
 10
0.0
 20
0.0
 30
0.0
  3
A$Cfe87990e
  1

  0
TEXT
  5
320
330
31F
100
AcDbEntity
  8
6文字层
100
AcDbText
 10
61.83672636591371
 20
41.99648091501012
 30
0.0
 40
3.0
  1
DN1600 δ=10 L=32500
 41
0.6999999999999999
  7
HZTXT
100
AcDbText
1001
CDA_SML_T
1000
name
1000
13
  0
TEXT
  5
321
330
31F
100
AcDbEntity
  8
6文字层
 62
     3
100
AcDbText
 10
103.8113444453785
 20
40.20307823889061
 30
0.0
 40
3.0
  1
1
 41
0.6999999999999999
  7
HZTXT
 72
     1
 11
104.6613444453785
 21
40.20307823889061
 31
0.0
100
AcDbText
1001
CDA_BG_MXB_T
1070
    12
1070
     4
1000
11
1000
1EF9
  0
TEXT
  5
322
330
31F
100
AcDbEntity
  8
6文字层
 62
     3
100
AcDbText
 10
46.774807543993
 20
41.98777405777081
 30
0.0
 40
3.5
  1
筒体
 41
0.7
  7
HZTXT
100
AcDbText
1001
CDA_SML_T
1000
name
1000
13
  0
TEXT
  5
323
330
31F
100
AcDbEntity
  8
2
 48
200.0
100
AcDbText
 10
46.79982670105244
 20
39.10215361601013
 30
0.0
 40
2.0
  1
SHELL
 41
0.7
  7
HZTXT
100
AcDbText
1001
CDA_SML_T
1000
name
1000
13
  0
TEXT
  5
324
330
31F
100
AcDbEntity
  8
6文字层
100
AcDbText
 10
150.18864820952
 20
40.01279959423619
 30
0.0
 40
3.0
  1
13036
 41
0.65
  7
HZTXT
 72
     4
 11
154.9707910666628
 21
41.51279959423618
 31
0.0
100
AcDbText
  0
TEXT
  5
325
330
31F
100
AcDbEntity
  8
6文字层
100
AcDbText
 10
151.0656314060383
 20
16.34049884849037
 30
0.0
 40
3.0
  1
3030
 41
0.6999999880790711
  7
HZ
 72
     1
 11
155.0656313379187
 21
16.34049884849037
 31
0.0
100
AcDbText
1001
CDA_BG_MXB_T
1000

  0
TEXT
  5
326
330
31F
100
AcDbEntity
  8
6文字层
100
AcDbText
 10
121.4868045493911
 20
16.036596935141
 30
0.0
 40
3.5
  1
组合件
 41
0.7
  7
HZ
 72
     1
 11
125.1714502186825
 21
16.036596935141
 31
0.0
100
AcDbText
1001
CDA_SML_T
1000

  0
TEXT
  5
327
330
31F
100
AcDbEntity
  8
6文字层
100
AcDbText
 10
46.99210616175514
 20
17.58040164819658
 30
0.0
 40
3.5
  1
裙座
 41
0.6999999880790711
  7
HZ
100
AcDbText
1001
CDA_SML_T
1000

  0
TEXT
  5
328
330
31F
100
AcDbEntity
  8
2
 48
200.0
100
AcDbText
 10
46.68708359198172
 20
14.91560096619787
 30
0.0
 40
2.0
  1
SKIRT
 41
0.7
  7
HZTXT
100
AcDbText
1001
CDA_SML_T
1000
name
1000
13
  0
TEXT
  5
329
330
31F
100
AcDbEntity
  8
6文字层
100
AcDbText
 10
104.1303787507864
 20
16.28194554501215
 30
0.0
 40
3.0
  1
1
 41
0.6999999999999999
  7
HZTXT
 72
     1
 11
104.9803787507863
 21
16.28194554501215
 31
0.0
100
AcDbText
1001
CDA_SML_T
1000
scal
1000
13
  0
TEXT
  5
32A
330
31F
100
AcDbEntity
  8
6文字层
100
AcDbText
 10
16.3786722519868
 20
16.06630510935474
 30
0.0
 40
3.0
  1
NCY24-S008-01
 41
0.7
  7
HZTXT
 72
     1
 11
29.77867225198679
 21
16.06630510935474
 31
0.0
100
AcDbText
1001
CDA_BG_MXB_T
1070
     2
1070
     2
1000
11
  0
LINE
  5
32B
330
31F
100
AcDbEntity
  8
1轮廓实线层
100
AcDbLine
 10
0.0079200095668739
 20
14.00000003998911
 30
0.0
 11
179.9168873210028
 21
14.00000003998911
 31
0.0
  0
TEXT
  5
32C
330
31F
100
AcDbEntity
  8
6文字层
 62
     3
100
AcDbText
 10
4.44017726266145
 20
6.560564750223875
 30
0.0
 40
3.5
  1
件 号
 41
0.7
  7
HZTXT
100
AcDbText
  0
TEXT
  5
32D
330
31F
100
AcDbEntity
  8
6文字层
 62
     3
100
AcDbText
 10
2.090719011634659
 20
1.760169390181999
 30
0.0
 40
2.0
  1
PARTS .NO.
 41
0.7
  7
HZTXT
 72
     1
 11
7.776808250479803
 21
1.760169390181999
 31
0.0
100
AcDbText
  0
LINE
  5
32E
330
31F
100
AcDbEntity
  8
1轮廓实线层
100
AcDbLine
 10
160.0122272186154
 20
6.500000039989117
 30
0.0
 11
140.0122272186154
 21
6.500000039989117
 31
0.0
  0
TEXT
  5
32F
330
31F
100
AcDbEntity
  8
6文字层
 62
     3
100
AcDbText
 10
148.3304426778513
 20
1.702951468702394
 30
0.0
 40
2.0
  1
MASS（kg）
 41
0.7
  7
HZTXT
100
AcDbText
  0
TEXT
  5
330
330
31F
100
AcDbEntity
  8
6文字层
 62
     3
100
AcDbText
 10
19.43384733576647
 20
1.760169390181999
 30
0.0
 40
2.0
  1
DWG NO. OR STD. NO.
 41
0.7
  7
HZTXT
100
AcDbText
  0
TEXT
  5
331
330
31F
100
AcDbEntity
  8
6文字层
 62
     3
100
AcDbText
 10
22.43566834695491
 20
6.533005695121119
 30
0.0
 40
3.5
  1
图号或标准号
 41
0.7
  7
HZTXT
100
AcDbText
  0
TEXT
  5
332
330
31F
100
AcDbEntity
  8
6文字层
 62
     3
100
AcDbText
 10
65.06746673597354
 20
1.760169390181999
 30
0.0
 40
2.0
  1
PARTS. NAME.
 41
0.7
  7
HZTXT
100
AcDbText
  0
TEXT
  5
333
330
31F
100
AcDbEntity
  8
6文字层
 62
     3
100
AcDbText
 10
67.30272065454028
 20
6.560564750223875
 30
0.0
 40
3.5
  1
名   称
 41
0.7
  7
HZTXT
100
AcDbText
  0
TEXT
  5
334
330
31F
100
AcDbEntity
  8
6文字层
 62
     3
100
AcDbText
 10
102.8998672540938
 20
2.328347432369355
 30
0.0
 40
2.0
  1
QTY.
 41
0.7
  7
HZTXT
100
AcDbText
  0
TEXT
  5
335
330
31F
100
AcDbEntity
  8
6文字层
 62
     3
100
AcDbText
 10
102.5083141651876
 20
6.560564750223875
 30
0.0
 40
3.5
  1
数量
 41
0.7
  7
HZTXT
100
AcDbText
  0
TEXT
  5
336
330
31F
100
AcDbEntity
  8
6文字层
 62
     3
100
AcDbText
 10
122.9472377569354
 20
2.328347432369355
 30
0.0
 40
2.0
  1
MAT'L
 41
0.7
  7
HZTXT
100
AcDbText
  0
TEXT
  5
337
330
31F
100
AcDbEntity
  8
6文字层
 62
     3
100
AcDbText
 10
121.5642851264156
 20
6.560564750223875
 30
0.0
 40
3.5
  1
材  料
 41
0.7
  7
HZTXT
100
AcDbText
  0
TEXT
  5
338
330
31F
100
AcDbEntity
  8
6文字层
 62
     3
100
AcDbText
 10
142.4943066556179
 20
0.8745411943532417
 30
0.0
 40
3.5
  1
质量
 41
0.7
  7
HZTXT
100
AcDbText
  0
TEXT
  5
339
330
31F
100
AcDbEntity
  8
6文字层
 62
     3
100
AcDbText
 10
141.8999067539289
 20
7.448382055183628
 30
0.0
 40
2.0
  1
SINGLE
 41
0.7
  7
HZTXT
100
AcDbText
  0
TEXT
  5
33A
330
31F
100
AcDbEntity
  8
6文字层
 62
     3
100
AcDbText
 10
143.7949014969808
 20
10.02350809500831
 30
0.0
 40
3.5
  1
单
 41
0.7
  7
HZTXT
100
AcDbText
  0
TEXT
  5
33B
330
31F
100
AcDbEntity
  8
6文字层
 62
     3
100
AcDbText
 10
153.6295107485666
 20
10.22572680102939
 30
0.0
 40
3.5
  1
总
 41
0.7
  7
HZTXT
100
AcDbText
  0
TEXT
  5
33C
330
31F
100
AcDbEntity
  8
6文字层
 62
     3
100
AcDbText
 10
152.6455269302414
 20
7.448382055183628
 30
0.0
 40
2.0
  1
TOTAL
 41
0.7
  7
HZTXT
100
AcDbText
  0
TEXT
  5
33D
330
31F
100
AcDbEntity
  8
6文字层
 62
     3
100
AcDbText
 10
166.3192717938334
 20
6.798404103778466
 30
0.0
 40
3.5
  1
备 注
 41
0.7
  7
HZTXT
 72
     1
 11
169.3383662820224
 21
6.798404103778466
 31
0.0
100
AcDbText
  0
TEXT
  5
33E
330
31F
100
AcDbEntity
  8
6文字层
 62
     3
100
AcDbText
 10
165.4825509627653
 20
2.298033453706466
 30
0.0
 40
2.0
  1
REMARKS
 41
0.7
  7
HZTXT
100
AcDbText
  0
LINE
  5
33F
330
31F
100
AcDbEntity
  8
2细线层
100
AcDbLine
 10
179.9168871969041
 20
45.99999996006499
 30
0.0
 11
0.0079200095669876
 21
45.99999996006499
 31
0.0
  0
LINE
  5
340
330
31F
100
AcDbEntity
  8
2细线层
100
AcDbLine
 10
179.9150828941383
 20
61.99999992010316
 30
0.0
 11
0.006115768734162
 21
61.99999992010316
 31
0.0
  0
LINE
  5
341
330
31F
100
AcDbEntity
  8
2细线层
100
AcDbLine
 10
179.9089672493864
 20
69.99999990010883
 30
0.0
 11
0.0
 21
69.99999990010883
 31
0.0
  0
TEXT
  5
342
330
31F
100
AcDbEntity
  8
6文字层
 62
     3
100
AcDbText
 10
5.824733691471919
 20
24.37824452396081
 30
0.0
 40
3.5
  1
2
 41
0.7
  7
HZTXT
100
AcDbText
1001
CDA_BG_MXB_T
1070
     2
1070
     1
1000
11
1000
1F07
  0
TEXT
  5
343
330
31F
100
AcDbEntity
  8
6文字层
 62
     3
100
AcDbText
 10
5.824733660389028
 20
16.37824454395513
 30
0.0
 40
3.5
  1
1
 41
0.7
  7
HZTXT
100
AcDbText
1001
CDA_BG_MXB_T
1070
     2
1070
     1
1000
11
1000
1F07
  0
TEXT
  5
344
330
31F
100
AcDbEntity
  8
6文字层
 62
     3
100
AcDbText
 10
5.822929264610138
 20
32.3782445239608
 30
0.0
 40
3.5
  1
3
 41
0.7
  7
HZTXT
100
AcDbText
1001
CDA_BG_MXB_T
1070
     2
1070
     1
1000
11
1000
1F07
  0
TEXT
  5
345
330
31F
100
AcDbEntity
  8
6文字层
 62
     3
100
AcDbText
 10
5.822929233527247
 20
48.37824452395853
 30
0.0
 40
3.5
  1
5
 41
0.7
  7
HZTXT
100
AcDbText
1001
CDA_BG_MXB_T
1070
     2
1070
     1
1000
11
1000
1F07
  0
TEXT
  5
346
330
31F
100
AcDbEntity
  8
6文字层
 62
     3
100
AcDbText
 10
5.822929233527247
 20
40.49689838246831
 30
0.0
 40
3.5
  1
4
 41
0.7
  7
HZTXT
100
AcDbText
1001
CDA_BG_MXB_T
1070
     2
1070
     1
1000
11
1000
1F07
  0
TEXT
  5
347
330
31F
100
AcDbEntity
  8
6文字层
 62
     3
100
AcDbText
 10
5.821124899678579
 20
56.37824444400803
 30
0.0
 40
3.5
  1
6
 41
0.7
  7
HZTXT
100
AcDbText
1001
CDA_BG_MXB_T
1070
     2
1070
     1
1000
11
1000
1F07
  0
TEXT
  5
348
330
31F
100
AcDbEntity
  8
6文字层
 62
     3
100
AcDbText
 10
5.815009286009626
 20
64.3782444240137
 30
0.0
 40
3.5
  1
7
 41
0.7
  7
HZTXT
100
AcDbText
1001
CDA_BG_MXB_T
1070
     2
1070
     1
1000
11
1000
1F07
  0
TEXT
  5
349
330
31F
100
AcDbEntity
  8
6文字层
100
AcDbText
 10
118.5411140822924
 20
40.27586859567736
 30
0.0
 40
3.0
  1
S30408
 41
0.6999999999999999
  7
HZTXT
 72
     4
 11
124.5411140822924
 21
41.77586859567736
 31
0.0
100
AcDbText
  0
TEXT
  5
34A
330
31F
100
AcDbEntity
  8
6文字层
 62
     3
100
AcDbText
 10
5.080453766300706
 20
88.37824436402934
 30
0.0
 40
3.5
  1
10
 41
0.6999999880790711
  7
HZTXT
100
AcDbText
1001
CDA_BG_MXB_T
1070
     2
1070
     1
1000
11
1000
1F07
  0
TEXT
  5
34B
330
31F
100
AcDbEntity
  8
6文字层
 62
     3
100
AcDbText
 10
5.100417478436611
 20
112.3782443040463
 30
0.0
 40
3.5
  1
13
 41
0.6999999880790711
  7
HZTXT
100
AcDbText
1001
CDA_BG_MXB_T
1070
     2
1070
     1
1000
11
1000
1F07
  0
TEXT
  5
34C
330
31F
100
AcDbEntity
  8
6文字层
 62
     3
100
AcDbText
 10
5.100417478436611
 20
120.378244284052
 30
0.0
 40
3.5
  1
14
 41
0.6999999880790711
  7
HZTXT
100
AcDbText
1001
CDA_BG_MXB_T
1070
     2
1070
     1
1000
11
1000
1F07
  0
LINE
  5
34D
330
31F
100
AcDbEntity
  8
2细线层
100
AcDbLine
 10
179.9168872589534
 20
85.9999998601188
 30
0.0
 11
0.0079200095669876
 21
85.9999998601188
 31
0.0
  0
TEXT
  5
34E
330
31F
100
AcDbEntity
  8
6文字层
 62
     3
100
AcDbText
 10
6.242228182320104
 20
72.37824440401936
 30
0.0
 40
3.5
  1
8
 41
0.6999999880790711
  7
HZTXT
100
AcDbText
1001
CDA_BG_MXB_T
1070
     2
1070
     1
1000
11
1000
1F07
  0
TEXT
  5
34F
330
31F
100
AcDbEntity
  8
6文字层
 62
     3
100
AcDbText
 10
6.224341711530541
 20
80.37824438402367
 30
0.0
 40
3.5
  1
9
 41
0.6999999880790711
  7
HZTXT
100
AcDbText
1001
CDA_BG_MXB_T
1070
     2
1070
     1
1000
11
1000
1F07
  0
TEXT
  5
350
330
31F
100
AcDbEntity
  8
6文字层
100
AcDbText
 10
15.90191982111844
 20
48.30808547744846
 30
0.0
 40
3.0
  1
NCY24-S004-02
 41
0.7
  7
HZTXT
100
AcDbText
  0
TEXT
  5
351
330
31F
100
AcDbEntity
  8
6文字层
100
AcDbText
 10
47.02368677275205
 20
50.04649413749894
 30
0.0
 40
3.5
  1
接管组件
 41
0.7
  7
HZTXT
100
AcDbText
1001
CDA_SML_T
1000
name
1000
13
  0
TEXT
  5
352
330
31F
100
AcDbEntity
  8
6文字层
100
AcDbText
 10
47.02368677275205
 20
47.44932203216331
 30
0.0
 40
2.0
  1
PIPE
 41
0.7
  7
HZTXT
100
AcDbText
1001
CDA_SML_T
1000
name
1000
13
  0
TEXT
  5
353
330
31F
100
AcDbEntity
  8
6文字层
 62
     3
100
AcDbText
 10
103.9025767073433
 20
48.8975496069138
 30
0.0
 40
3.0
  1
1
 41
0.6999999999999999
  7
HZTXT
 72
     1
 11
104.7525767073433
 21
48.8975496069138
 31
0.0
100
AcDbText
1001
CDA_BG_MXB_T
1070
    12
1070
     4
1000
11
1000
1EF9
  0
TEXT
  5
354
330
31F
100
AcDbEntity
  8
6文字层
100
AcDbText
 10
151.0161345484715
 20
48.47609277823676
 30
0.0
 40
3.0
  1
2530
 41
0.6999999999999999
  7
HZTXT
 72
     4
 11
155.0161345484715
 21
49.97609277823676
 31
0.0
100
AcDbText
  0
TEXT
  5
355
330
31F
100
AcDbEntity
  8
6文字层
 62
     3
100
AcDbText
 10
47.1130476688686
 20
34.04446271755751
 30
0.0
 40
3.5
  1
铭牌及支架
 41
0.7
  7
HZTXT
100
AcDbText
1001
CDA_SML_T
1000
name
1000
13
  0
TEXT
  5
356
330
31F
100
AcDbEntity
  8
6文字层
100
AcDbText
 10
104.631219410508
 20
32.52851582690073
 30
0.0
 40
3.0
  1
1
 41
0.6999999999999999
  7
HZTXT
 72
     1
 11
105.481219410508
 21
32.52851582690073
 31
0.0
100
AcDbText
1001
CDA_BG_MXB_T
1070
    12
1070
     4
1000
11
1000
1EF9
  0
TEXT
  5
357
330
31F
100
AcDbEntity
  8
6文字层
100
AcDbText
 10
17.2250995391416
 20
32.42625611657422
 30
0.0
 40
3.0
  1
NCY-ST-001-3
 41
0.7
  7
HZTXT
 72
     1
 11
30.02509953914159
 21
32.42625611657422
 31
0.0
100
AcDbText
1001
CDA_BG_MXB_T
1070
     2
1070
     2
1000
11
  0
TEXT
  5
358
330
31F
100
AcDbEntity
  8
6文字层
100
AcDbText
 10
112.2677078728203
 20
32.49934228971415
 30
0.0
 40
3.0
  1
S30408/Q345R
 41
0.6999999999999999
  7
HZTXT
 72
     1
 11
124.5177078728203
 21
32.49934228971415
 31
0.0
100
AcDbText
1001
CDA_SML_T
1000
cale
1000
13
  0
TEXT
  5
359
330
31F
100
AcDbEntity
  8
6文字层
100
AcDbText
 10
47.1130476688686
 20
31.44729061222188
 30
0.0
 40
2.0
  1
NAMEPLATE & BRACKET
 41
0.7
  7
HZTXT
100
AcDbText
1001
CDA_SML_T
1000
name
1000
13
  0
TEXT
  5
35A
330
31F
100
AcDbEntity
  8
6文字层
100
AcDbText
 10
152.3150550948258
 20
32.52766707740102
 30
0.0
 40
3.0
  1
2.5
 41
0.6999999999999999
  7
HZTXT
 72
     1
 11
154.8150550948259
 21
32.52766707740102
 31
0.0
100
AcDbText
1001
CDA_BG_MXB_T
1070
    12
1070
     4
1000
11
1000
1EF9
  0
LINE
  5
35B
330
31F
100
AcDbEntity
  8
2细线层
100
AcDbLine
 10
179.9168872589534
 20
93.99999984012447
 30
0.0
 11
0.0079200095669876
 21
93.99999984012447
 31
0.0
  0
LINE
  5
35C
330
31F
100
AcDbEntity
  8
1轮廓实线层
100
AcDbLine
 10
110.0122272186187
 20
14.00000003998911
 30
0.0
 11
110.0122272186206
 21
125.9999997601471
 31
0.0
  0
LINE
  5
35D
330
31F
100
AcDbEntity
  8
1轮廓实线层
100
AcDbLine
 10
15.01222721860154
 20
125.9999997601471
 30
0.0
 11
15.01222721860131
 21
14.00000003998911
 31
0.0
  0
LINE
  5
35E
330
31F
100
AcDbEntity
  8
1轮廓实线层
100
AcDbLine
 10
45.01222721863394
 20
14.00000003998911
 30
0.0
 11
45.01222721863507
 21
125.9999997601471
 31
0.0
  0
LINE
  5
35F
330
31F
100
AcDbEntity
  8
1轮廓实线层
100
AcDbLine
 10
100.0122272186455
 20
14.00000003998911
 30
0.0
 11
100.0122272185984
 21
125.9999997601471
 31
0.0
  0
LINE
  5
360
330
31F
100
AcDbEntity
  8
1轮廓实线层
100
AcDbLine
 10
140.0122272186207
 20
14.00000003998911
 30
0.0
 11
140.0122272186198
 21
125.9999997601471
 31
0.0
  0
LINE
  5
361
330
31F
100
AcDbEntity
  8
1轮廓实线层
100
AcDbLine
 10
160.0122272185879
 20
14.00000003998911
 30
0.0
 11
160.0122272185861
 21
125.9999997601471
 31
0.0
  0
LINE
  5
362
330
31F
100
AcDbEntity
  8
1轮廓实线层
100
AcDbLine
 10
150.0122272186125
 20
14.00000003998911
 30
0.0
 11
150.0122272186124
 21
125.9999997601471
 31
0.0
  0
LINE
  5
363
330
31F
100
AcDbEntity
  8
1.轮廓实线层
100
AcDbLine
 10
0.0079200095671013
 20
0.0
 30
0.0
 11
0.0079200095671013
 21
125.9999997601471
 31
0.0
  0
TEXT
  5
364
330
31F
100
AcDbEntity
  8
6文字层
 62
     3
100
AcDbText
 10
5.080453766300706
 20
96.37824434403501
 30
0.0
 40
3.5
  1
11
 41
0.6999999880790711
  7
HZTXT
100
AcDbText
1001
CDA_BG_MXB_T
1070
     2
1070
     1
1000
11
1000
1F07
  0
LINE
  5
365
330
31F
100
AcDbEntity
  8
2细线层
100
AcDbLine
 10
179.9168872589534
 20
101.9999998201301
 30
0.0
 11
0.0079200095669876
 21
101.9999998201301
 31
0.0
  0
LINE
  5
366
330
31F
100
AcDbEntity
  8
2细线层
100
AcDbLine
 10
179.9168872589534
 20
117.9999997801415
 30
0.0
 11
0.0079200095669876
 21
117.9999997801415
 31
0.0
  0
LINE
  5
367
330
31F
100
AcDbEntity
  8
2细线层
100
AcDbLine
 10
179.9168872589534
 20
109.9999998001358
 30
0.0
 11
0.0079200095669876
 21
109.9999998001358
 31
0.0
  0
LINE
  5
368
330
31F
100
AcDbEntity
  8
2细线层
100
AcDbLine
 10
179.9089672493864
 20
77.9999998801145
 30
0.0
 11
0.0
 21
77.9999998801145
 31
0.0
  0
LINE
  5
369
330
31F
100
AcDbEntity
  8
2细线层
100
AcDbLine
 10
179.9168871969041
 20
53.9999999400975
 30
0.0
 11
0.0079200095669876
 21
53.9999999400975
 31
0.0
  0
LINE
  5
36A
330
31F
100
AcDbEntity
  8
Cont
100
AcDbLine
 10
179.9193944015178
 20
52.0
 30
0.0
 11
179.9193944015178
 21
86.00034000084997
 31
0.0
  0
LINE
  5
36B
330
31F
100
AcDbEntity
  8
1轮廓实线层
100
AcDbLine
 10
179.9168871969041
 20
0.0
 30
0.0
 11
179.9168871969041
 21
52.0
 31
0.0
  0
LINE
  5
36C
330
31F
100
AcDbEntity
  8
1轮廓实线层
100
AcDbLine
 10
110.0122272186233
 20
0.0000000000004547
 30
0.0
 11
110.0122272186233
 21
14.00000003998911
 31
0.0
  0
LINE
  5
36D
330
31F
100
AcDbEntity
  8
1轮廓实线层
100
AcDbLine
 10
15.01222721860506
 20
14.00000003998911
 30
0.0
 11
15.01222721860517
 21
0.0000000000004547
 31
0.0
  0
LINE
  5
36E
330
31F
100
AcDbEntity
  8
1轮廓实线层
100
AcDbLine
 10
45.01222721863792
 20
0.0000000000004547
 30
0.0
 11
45.01222721863825
 21
14.00000003998911
 31
0.0
  0
LINE
  5
36F
330
31F
100
AcDbEntity
  8
1轮廓实线层
100
AcDbLine
 10
100.0122272186342
 20
0.0000000000004547
 30
0.0
 11
100.0122272186286
 21
14.00000003998911
 31
0.0
  0
LINE
  5
370
330
31F
100
AcDbEntity
  8
1轮廓实线层
100
AcDbLine
 10
140.0122272186233
 20
0.0000000000004547
 30
0.0
 11
140.0122272186233
 21
14.00000003998911
 31
0.0
  0
LINE
  5
371
330
31F
100
AcDbEntity
  8
1轮廓实线层
100
AcDbLine
 10
160.0122272185906
 20
0.0000000000004547
 30
0.0
 11
160.0122272185906
 21
14.00000003998911
 31
0.0
  0
LINE
  5
372
330
31F
100
AcDbEntity
  8
1轮廓实线层
100
AcDbLine
 10
150.0122272186161
 20
6.500000039989117
 30
0.0
 11
150.0122272186163
 21
14.00000003998911
 31
0.0
  0
TEXT
  5
373
330
31F
100
AcDbEntity
  8
2细线层
 62
     3
100
AcDbText
 10
47.40850315240061
 20
25.78345218905997
 30
0.0
 40
3.5
  1
接地板
 41
0.6999999880790711
  7
HZTXT
100
AcDbText
1001
CDA_SML_T
1000
name
1000
13
  0
TEXT
  5
374
330
31F
100
AcDbEntity
  8
2
 48
200.0
100
AcDbText
 10
47.40850315240971
 20
23.18628008372434
 30
0.0
 40
2.0
  1
EARTH LUG
 41
0.7
  7
HZTXT
100
AcDbText
1001
CDA_SML_T
1000
name
1000
13
  0
TEXT
  5
375
330
31F
100
AcDbEntity
  8
6文字层
100
AcDbText
 10
104.3804233949009
 20
24.27519347982116
 30
0.0
 40
3.0
  1
2
 41
0.6999999999999999
  7
HZTXT
 72
     1
 11
105.3804233949009
 21
24.27519347982116
 31
0.0
100
AcDbText
1001
CDA_BG_MXB_T
1070
    12
1070
     4
1000
11
1000
1EF9
  0
TEXT
  5
376
330
31F
100
AcDbEntity
  8
6文字层
100
AcDbText
 10
118.8219225633853
 20
24.23738274777679
 30
0.0
 40
3.0
  1
S30408
 41
0.6999999999999999
  7
HZTXT
 72
     1
 11
124.8219225633853
 21
24.23738274777679
 31
0.0
100
AcDbText
1001
CDA_SML_T
1000
cale
1000
13
  0
TEXT
  5
377
330
31F
100
AcDbEntity
  8
2细线层
 62
     3
100
AcDbText
 10
63.68897198494562
 20
25.91231712903937
 30
0.0
 40
3.0
  1
100X50X10
 41
0.6999999999999999
  7
HZTXT
100
AcDbText
1001
CDA_SML_T
1000
name
1000
13
  0
TEXT
  5
378
330
31F
100
AcDbEntity
  8
6文字层
100
AcDbText
 10
153.2401759576474
 20
24.26655632481379
 30
0.0
 40
3.0
  1
0.8
 41
0.6999999999999999
  7
HZTXT
 72
     1
 11
155.7401759576474
 21
24.26655632481379
 31
0.0
100
AcDbText
1001
CDA_BG_MXB_T
1070
    12
1070
     4
1000
11
1000
1EF9
  0
TEXT
  5
379
330
31F
100
AcDbEntity
  8
6文字层
100
AcDbText
 10
143.1901759576465
 20
24.26655631481663
 30
0.0
 40
3.0
  1
0.4
 41
0.6999999999999999
  7
HZTXT
 72
     1
 11
145.7401759576465
 21
24.26655631481663
 31
0.0
100
AcDbText
1001
CDA_BG_MXB_T
1070
    12
1070
     4
1000
11
1000
1EF9
  0
TEXT
  5
37A
330
31F
100
AcDbEntity
  8
2细线层
 62
     3
100
AcDbText
 10
19.37662613291798
 20
24.61687752236457
 30
0.0
 40
3.0
  1
NCY-ST-002
 41
0.6999999880790711
  7
HZTXT
 72
     1
 11
29.87662595410404
 21
24.61687752236457
 31
0.0
100
AcDbText
1001
CDA_BG_MXB_T
1070
     2
1070
     2
1000
11
  0
TEXT
  5
37B
330
31F
100
AcDbEntity
  8
6文字层
 62
     3
100
AcDbText
 10
5.100417478436611
 20
104.3782443240407
 30
0.0
 40
3.5
  1
12
 41
0.6999999880790711
  7
HZTXT
100
AcDbText
1001
CDA_BG_MXB_T
1070
     2
1070
     1
1000
11
1000
1F07
  0
TEXT
  5
37C
330
31F
100
AcDbEntity
  8
6文字层
100
AcDbText
 10
15.90191982111605
 20
104.1042664171655
 30
0.0
 40
3.0
  1
GB/T25198-2023
 41
0.7
  7
HZTXT
100
AcDbText
  0
TEXT
  5
37D
330
31F
100
AcDbEntity
  8
6文字层
100
AcDbText
 10
63.30415560533481
 20
105.9715399972156
 30
0.0
 40
3.0
  1
EHA1600x10(8.6) h=25
 41
0.65
  7
HZTXT
100
AcDbText
1001
CDA_SML_T
1000
name
1000
13
  0
TEXT
  5
37E
330
31F
100
AcDbEntity
  8
6文字层
100
AcDbText
 10
47.02368677274967
 20
105.8426750772159
 30
0.0
 40
3.5
  1
椭圆形封头
 41
0.7
  7
HZTXT
100
AcDbText
1001
CDA_SML_T
1000
name
1000
13
  0
TEXT
  5
37F
330
31F
100
AcDbEntity
  8
6文字层
100
AcDbText
 10
47.02368677274967
 20
103.2455029718803
 30
0.0
 40
2.0
  1
ELLIPSE HEAD
 41
0.7
  7
HZTXT
100
AcDbText
1001
CDA_SML_T
1000
name
1000
13
  0
TEXT
  5
380
330
31F
100
AcDbEntity
  8
6文字层
100
AcDbText
 10
118.5726947242645
 20
104.535342739382
 30
0.0
 40
3.0
  1
S30408
 41
0.6999999999999999
  7
HZTXT
 72
     4
 11
124.5726947242645
 21
106.035342739382
 31
0.0
100
AcDbText
  0
TEXT
  5
381
330
31F
100
AcDbEntity
  8
6文字层
 62
     3
100
AcDbText
 10
103.752576707341
 20
104.6937305466308
 30
0.0
 40
3.0
  1
2
 41
0.6999999999999999
  7
HZTXT
 72
     1
 11
104.752576707341
 21
104.6937305466308
 31
0.0
100
AcDbText
1001
CDA_BG_MXB_T
1070
    12
1070
     4
1000
11
1000
1EF9
  0
TEXT
  5
382
330
31F
100
AcDbEntity
  8
6文字层
100
AcDbText
 10
152.0161345995589
 20
104.2722737179538
 30
0.0
 40
3.0
  1
552
 41
0.6999999880790711
  7
HZ
 72
     4
 11
155.0161345484692
 21
105.7722737179538
 31
0.0
100
AcDbText
  0
TEXT
  5
383
330
31F
100
AcDbEntity
  8
6文字层
100
AcDbText
 10
47.03744955051945
 20
66.20434638215511
 30
0.0
 40
3.5
  1
内件1
 41
0.7
  7
HZTXT
100
AcDbText
1001
CDA_SML_T
1000
name
1000
13
  0
TEXT
  5
384
330
31F
100
AcDbEntity
  8
6文字层
 62
     3
100
AcDbText
 10
103.9163394851107
 20
64.69373064660385
 30
0.0
 40
3.0
  1
1
 41
0.6999999999999999
  7
HZTXT
 72
     1
 11
104.7663394851107
 21
64.69373064660385
 31
0.0
100
AcDbText
1001
CDA_BG_MXB_T
1070
    12
1070
     4
1000
11
1000
1EF9
  0
TEXT
  5
385
330
31F
100
AcDbEntity
  8
6文字层
100
AcDbText
 10
153.7298973262389
 20
64.48655953221252
 30
0.0
 40
3.0
  1
-
 41
0.6999999999999999
  7
HZTXT
 72
     4
 11
155.0298973262389
 21
65.77227381792681
 31
0.0
100
AcDbText
  0
TEXT
  5
386
330
31F
100
AcDbEntity
  8
6文字层
100
AcDbText
 10
47.13770230383682
 20
63.04433008193701
 30
0.0
 40
2.0
  1
INTERNAL PARTS1
 41
0.6999999880790711
  7
HZTXT
100
AcDbText
1001
CDA_SML_T
1000
name
1000
13
  0
TEXT
  5
387
330
31F
100
AcDbEntity
  8
2细线层
 62
     3
100
AcDbText
 10
63.27091320109389
 20
114.1612990258449
 30
0.0
 40
3.0
  1
SP-8-35
 41
0.6999999999999999
  7
HZTXT
100
AcDbText
1001
CDA_SML_T
1000
name
1000
13
  0
TEXT
  5
388
330
31F
100
AcDbEntity
  8
6文字层
100
AcDbText
 10
15.89133058252696
 20
112.2470868045279
 30
0.0
 40
3.0
  1
HG/T21574-2018
 41
0.6999999880790711
  7
HZ
100
AcDbText
1001
CDA_SML_T
1000

  0
TEXT
  5
389
330
31F
100
AcDbEntity
  8
6文字层
100
AcDbText
 10
46.9748985646263
 20
113.7636276697726
 30
0.0
 40
3.5
  1
设备吊耳
 41
0.7
  7
HZ
100
AcDbText
1001
CDA_SML_T
1000

  0
TEXT
  5
38A
330
31F
100
AcDbEntity
  8
6文字层
100
AcDbText
 10
46.9748985646263
 20
111.166455564437
 30
0.0
 40
2.0
  1
LIFTING LUG
 41
0.6999999880790711
  7
HZ
100
AcDbText
1001
CDA_SML_T
1000

  0
TEXT
  5
38B
330
31F
100
AcDbEntity
  8
6文字层
100
AcDbText
 10
103.9631711707564
 20
112.4623722014062
 30
0.0
 40
3.0
  1
2
 41
0.6999999880790711
  7
HZ
 72
     1
 11
104.9631711537265
 21
112.4623722014062
 31
0.0
100
AcDbText
1001
CDA_SML_T
1000

  0
TEXT
  5
38C
330
31F
100
AcDbEntity
  8
6文字层
100
AcDbText
 10
151.571216091144
 20
112.4734391311381
 30
0.0
 40
3.0
  1
134
 41
0.7
  7
HZ
 72
     4
 11
154.7712160911439
 21
113.9734391311381
 31
0.0
100
AcDbText
  0
TEXT
  5
38D
330
31F
100
AcDbEntity
  8
6文字层
100
AcDbText
 10
142.7212160911458
 20
112.4734391311381
 30
0.0
 40
3.0
  1
67
 41
0.7
  7
HZ
 72
     4
 11
144.7712160911458
 21
113.9734391311381
 31
0.0
100
AcDbText
  0
TEXT
  5
38E
330
31F
100
AcDbEntity
  8
6文字层
100
AcDbText
 10
112.5879381595884
 20
112.5489192927311
 30
0.0
 40
3.0
  1
Q345R/S30408
 41
0.7
  7
HZTXT
 72
     1
 11
124.8379381595885
 21
112.5489192927311
 31
0.0
100
AcDbText
1001
CDA_SML_T
1000
cale
1000
13
  0
TEXT
  5
38F
330
31F
100
AcDbEntity
  8
6文字层
100
AcDbText
 10
168.0978203738118
 20
64.45832301562314
 30
0.0
 40
3.0
  1
客供
 41
0.6999999880790711
  7
HZ
 72
     1
 11
170.2143557708383
 21
64.45832301562314
 31
0.0
100
AcDbText
1001
CDA_BG_MXB_T
1000

  0
LINE
  5
390
330
31F
100
AcDbEntity
  8
2细线层
100
AcDbLine
 10
179.9168871969041
 20
37.9999999800325
 30
0.0
 11
0.0079200095669876
 21
37.9999999800325
 31
0.0
  0
LINE
  5
391
330
31F
100
AcDbEntity
  8
2细线层
100
AcDbLine
 10
179.9168871969041
 20
30.0
 30
0.0
 11
0.0079200095669876
 21
30.0
 31
0.0
  0
LINE
  5
392
330
31F
100
AcDbEntity
  8
2细线层
100
AcDbLine
 10
179.9168871969042
 20
22.0000000199675
 30
0.0
 11
0.0079200095671013
 21
22.0000000199675
 31
0.0
  0
TEXT
  5
393
330
31F
100
AcDbEntity
  8
6文字层
100
AcDbText
 10
104.1320729912758
 20
88.28167373166706
 30
0.0
 40
3.0
  1
1
 41
0.6999999999999999
  7
HZTXT
 72
     1
 11
104.9820729912758
 21
88.28167373166706
 31
0.0
100
AcDbText
1001
CDA_SML_T
1000
scal
1000
13
  0
TEXT
  5
394
330
31F
100
AcDbEntity
  8
6文字层
 62
     3
100
AcDbText
 10
151.9982065907611
 20
88.01252784078043
 30
0.0
 40
3.0
  1
343
 41
0.6999999999999999
  7
HZTXT
 72
     4
 11
154.9982065907611
 21
89.51252784078041
 31
0.0
100
AcDbText
  0
TEXT
  5
395
330
31F
100
AcDbEntity
  8
6文字层
 62
     3
100
AcDbText
 10
16.60512196589962
 20
88.48233776664256
 30
0.0
 40
3.0
  1
NCY24-S008-02
 41
0.7
  7
HZTXT
 72
     1
 11
30.30512196589962
 21
88.48233776664256
 31
0.0
100
AcDbText
1001
CDA_SML_T
1000
name
1000
13
  0
TEXT
  5
396
330
31F
100
AcDbEntity
  8
6文字层
100
AcDbText
 10
142.0161345995663
 20
104.2722737179538
 30
0.0
 40
3.0
  1
226
 41
0.6999999880790711
  7
HZ
 72
     4
 11
145.0161345484766
 21
105.7722737179538
 31
0.0
100
AcDbText
  0
TEXT
  5
397
330
31F
100
AcDbEntity
  8
6文字层
100
AcDbText
 10
46.91944520758113
 20
119.3040123275004
 30
0.0
 40
2.0
  1
BASE TEMPLATE COMPONENT
 41
0.6999999880790711
  7
HZ
100
AcDbText
1001
CDA_SML_T
1000

  0
TEXT
  5
398
330
31F
100
AcDbEntity
  8
6文字层
100
AcDbText
 10
46.91944520758113
 20
121.9011844328361
 30
0.0
 40
3.5
  1
基础模板组件
 41
0.7
  7
HZ
100
AcDbText
1001
CDA_SML_T
1000

  0
TEXT
  5
399
330
31F
100
AcDbEntity
  8
6文字层
100
AcDbText
 10
103.7973186928435
 20
120.6845792134499
 30
0.0
 40
3.0
  1
1
 41
0.6999999880790711
  7
HZ
 72
     1
 11
104.6473186783681
 21
120.6845792134499
 31
0.0
100
AcDbText
1001
CDA_SML_T
1000

  0
TEXT
  5
39A
330
31F
100
AcDbEntity
  8
6文字层
100
AcDbText
 10
150.3053636157856
 20
120.6956461431818
 30
0.0
 40
3.0
  1
1147
 41
0.7
  7
HZ
 72
     4
 11
154.4553636157855
 21
122.1956461431819
 31
0.0
100
AcDbText
  0
TEXT
  5
39B
330
31F
100
AcDbEntity
  8
6文字层
100
AcDbText
 10
121.3638179676946
 20
120.7711263047749
 30
0.0
 40
3.0
  1
组合件
 41
0.7
  7
HZTXT
 72
     1
 11
124.5220856842301
 21
120.7711263047749
 31
0.0
100
AcDbText
1001
CDA_SML_T
1000
cale
1000
13
  0
TEXT
  5
39C
330
31F
100
AcDbEntity
  8
6文字层
 62
     3
100
AcDbText
 10
16.62959955320582
 20
120.498398219368
 30
0.0
 40
3.0
  1
NCY24-S008-04
 41
0.7
  7
HZTXT
100
AcDbText
1001
CDA_SML_T
1000
name
1000
13
  0
TEXT
  5
39D
330
31F
100
AcDbEntity
  8
6文字层
100
AcDbText
 10
121.7057175153952
 20
64.15442110231288
 30
0.0
 40
3.5
  1
组合件
 41
0.7
  7
HZ
 72
     1
 11
125.3903631846865
 21
64.15442110231288
 31
0.0
100
AcDbText
1001
CDA_SML_T
1000

  0
TEXT
  5
39E
330
31F
100
AcDbEntity
  8
6文字层
100
AcDbText
 10
119.3903631846865
 20
88.15442104232989
 30
0.0
 40
3.0
  1
S30408
 41
0.7
  7
HZ
 72
     1
 11
125.3903631846865
 21
88.15442104232989
 31
0.0
100
AcDbText
1001
CDA_SML_T
1000

  0
TEXT
  5
39F
330
31F
100
AcDbEntity
  8
6文字层
100
AcDbText
 10
121.7057175153955
 20
48.15442114230291
 30
0.0
 40
3.5
  1
组合件
 41
0.7
  7
HZ
 72
     1
 11
125.3903631846868
 21
48.15442114230291
 31
0.0
100
AcDbText
1001
CDA_SML_T
1000

  0
TEXT
  5
3A0
330
31F
100
AcDbEntity
  8
6文字层
100
AcDbText
 10
47.03744955051649
 20
81.83360384283696
 30
0.0
 40
3.5
  1
外部预焊件
 41
0.7
  7
HZTXT
100
AcDbText
1001
CDA_SML_T
1000
name
1000
13
  0
TEXT
  5
3A1
330
31F
100
AcDbEntity
  8
6文字层
 62
     3
100
AcDbText
 10
103.9163394851078
 20
80.68465931225182
 30
0.0
 40
3.0
  1
1
 41
0.6999999999999999
  7
HZTXT
 72
     1
 11
104.7663394851078
 21
80.68465931225182
 31
0.0
100
AcDbText
1001
CDA_BG_MXB_T
1070
    12
1070
     4
1000
11
1000
1EF9
  0
TEXT
  5
3A2
330
31F
100
AcDbEntity
  8
6文字层
100
AcDbText
 10
153.7298973262359
 20
80.47748819786049
 30
0.0
 40
3.0
  1
-
 41
0.6999999999999999
  7
HZTXT
 72
     4
 11
155.029897326236
 21
81.76320248357479
 31
0.0
100
AcDbText
  0
TEXT
  5
3A3
330
31F
100
AcDbEntity
  8
6文字层
100
AcDbText
 10
47.13770230383386
 20
79.03525874758497
 30
0.0
 40
2.0
  1
CLIP
 41
0.6999999880790711
  7
HZTXT
100
AcDbText
1001
CDA_SML_T
1000
name
1000
13
  0
TEXT
  5
3A4
330
31F
100
AcDbEntity
  8
6文字层
100
AcDbText
 10
167.1632207143875
 20
80.44925168127111
 30
0.0
 40
3.0
  1
客供图
 41
0.6999999880790711
  7
HZ
 72
     1
 11
170.2222757804023
 21
80.44925168127111
 31
0.0
100
AcDbText
1001
CDA_BG_MXB_T
1000

  0
TEXT
  5
3A5
330
31F
100
AcDbEntity
  8
6文字层
100
AcDbText
 10
121.7057175153922
 20
80.14534976796221
 30
0.0
 40
3.5
  1
组合件
 41
0.7
  7
HZ
 72
     1
 11
125.3903631846835
 21
80.14534976796221
 31
0.0
100
AcDbText
1001
CDA_SML_T
1000

  0
LINE
  5
3A6
330
31F
100
AcDbEntity
  8
1.轮廓实线层
100
AcDbLine
 10
179.91688725895
 20
125.9999997601471
 30
0.0
 11
0.007920009563577
 21
125.9999997601471
 31
0.0
  0
TEXT
  5
3A7
330
31F
100
AcDbEntity
  8
6文字层
100
AcDbText
 10
104.1320729912886
 20
96.28167371167274
 30
0.0
 40
3.0
  1
1
 41
0.6999999999999999
  7
HZTXT
 72
     1
 11
104.9820729912886
 21
96.28167371167274
 31
0.0
100
AcDbText
1001
CDA_SML_T
1000
scal
1000
13
  0
TEXT
  5
3A8
330
31F
100
AcDbEntity
  8
6文字层
 62
     3
100
AcDbText
 10
152.998206590774
 20
96.0125278207861
 30
0.0
 40
3.0
  1
20
 41
0.6999999999999999
  7
HZTXT
 72
     4
 11
154.9982065907739
 21
97.51252782078609
 31
0.0
100
AcDbText
  0
TEXT
  5
3A9
330
31F
100
AcDbEntity
  8
6文字层
100
AcDbText
 10
113.1403631846993
 20
96.15442102233556
 30
0.0
 40
3.0
  1
Q235B/S30408
 41
0.7
  7
HZ
 72
     1
 11
125.3903631846993
 21
96.15442102233556
 31
0.0
100
AcDbText
1001
CDA_SML_T
1000

  0
TEXT
  5
3AA
330
31F
100
AcDbEntity
  8
6文字层
 62
     3
100
AcDbText
 10
46.84570986939843
 20
97.89237962174139
 30
0.0
 40
3.5
  1
保温支撑圈
 41
0.7
  7
HZTXT
100
AcDbText
1001
CDA_SML_T
1000
name
1000
13
  0
TEXT
  5
3AB
330
31F
100
AcDbEntity
  8
2
 48
200.0
100
AcDbText
 10
46.8707290264615
 20
95.00675923997823
 30
0.0
 40
2.0
  1
INSULATION SUPPORT RING
 41
0.7
  7
HZTXT
100
AcDbText
1001
CDA_SML_T
1000
name
1000
13
  0
TEXT
  5
3AC
330
31F
100
AcDbEntity
  8
6文字层
100
AcDbText
 10
63.63165654095837
 20
97.90108645895635
 30
0.0
 40
3.0
  1
Ⅳ %%C1632-64x6-6
 41
0.6999999999999999
  7
HZTXT
100
AcDbText
1001
CDA_SML_T
1000
name
1000
13
  0
TEXT
  5
3AD
330
31F
100
AcDbEntity
  8
6文字层
 62
     3
100
AcDbText
 10
17.33385489315961
 20
96.50333975199737
 30
0.0
 40
3.0
  1
NCY-ST-006-4
 41
0.7
  7
HZTXT
 72
     1
 11
30.1838548931596
 21
96.50333975199737
 31
0.0
100
AcDbText
1001
CDA_SML_T
1000
name
1000
13
  0
TEXT
  5
3AE
330
31F
100
AcDbEntity
  8
6文字层
 62
     3
100
AcDbText
 10
47.36071531045275
 20
90.04305660200499
 30
0.0
 40
3.5
  1
加强圈
 41
0.7
  7
HZTXT
100
AcDbText
1001
CDA_SML_T
1000
name
1000
13
  0
TEXT
  5
3AF
330
31F
100
AcDbEntity
  8
2
 48
200.0
100
AcDbText
 10
47.38573446751217
 20
87.15743616024429
 30
0.0
 40
2.0
  1
REINFORCING PAD
 41
0.7
  7
HZTXT
100
AcDbText
1001
CDA_SML_T
1000
name
1000
13
  0
TEXT
  5
3B0
330
31F
100
AcDbEntity
  8
6文字层
 62
     3
100
AcDbText
 10
163.6090386666504
 20
98.41190158609993
 30
0.0
 40
3.0
  1
保温圈上开孔
 41
0.6999999999999999
  7
HZTXT
 72
     4
 11
169.8594323674378
 21
99.93552363334401
 31
0.0
100
AcDbText
  0
TEXT
  5
3B1
330
31F
100
AcDbEntity
  8
6文字层
 62
     3
100
AcDbText
 10
161.4216370918473
 20
94.74580582082216
 30
0.0
 40
3.0
  1
参照NCY-ST-006-2
 41
0.4
  7
HZTXT
 72
     4
 11
169.8594323674378
 21
96.24580582082217
 31
0.0
100
AcDbText
  0
TEXT
  5
3B2
330
31F
100
AcDbEntity
  8
6文字层
100
AcDbText
 10
47.03744955052662
 20
57.83360390282132
 30
0.0
 40
3.5
  1
内部预焊件
 41
0.7
  7
HZTXT
100
AcDbText
1001
CDA_SML_T
1000
name
1000
13
  0
TEXT
  5
3B3
330
31F
100
AcDbEntity
  8
6文字层
 62
     3
100
AcDbText
 10
103.9163394851179
 20
56.68465937223619
 30
0.0
 40
3.0
  1
1
 41
0.6999999999999999
  7
HZTXT
 72
     1
 11
104.7663394851179
 21
56.68465937223619
 31
0.0
100
AcDbText
1001
CDA_BG_MXB_T
1070
    12
1070
     4
1000
11
1000
1EF9
  0
TEXT
  5
3B4
330
31F
100
AcDbEntity
  8
6文字层
100
AcDbText
 10
153.7298973262461
 20
56.47748825784486
 30
0.0
 40
3.0
  1
-
 41
0.6999999999999999
  7
HZTXT
 72
     4
 11
155.0298973262461
 21
57.76320254355915
 31
0.0
100
AcDbText
  0
TEXT
  5
3B5
330
31F
100
AcDbEntity
  8
6文字层
100
AcDbText
 10
47.13770230384398
 20
55.03525880756933
 30
0.0
 40
2.0
  1
CLIP
 41
0.6999999880790711
  7
HZTXT
100
AcDbText
1001
CDA_SML_T
1000
name
1000
13
  0
TEXT
  5
3B6
330
31F
100
AcDbEntity
  8
6文字层
100
AcDbText
 10
167.1632207143976
 20
56.44925174125546
 30
0.0
 40
3.0
  1
客供图
 41
0.6999999880790711
  7
HZ
 72
     1
 11
170.2222757804124
 21
56.44925174125546
 31
0.0
100
AcDbText
1001
CDA_BG_MXB_T
1000

  0
TEXT
  5
3B7
330
31F
100
AcDbEntity
  8
6文字层
100
AcDbText
 10
121.7057175154023
 20
56.14534982794658
 30
0.0
 40
3.5
  1
组合件
 41
0.7
  7
HZ
 72
     1
 11
125.3903631846936
 21
56.14534982794658
 31
0.0
100
AcDbText
1001
CDA_SML_T
1000

  0
TEXT
  5
3B8
330
31F
100
AcDbEntity
  8
6文字层
100
AcDbText
 10
47.03744955051615
 20
74.20434636216078
 30
0.0
 40
3.5
  1
内件2
 41
0.7
  7
HZTXT
100
AcDbText
1001
CDA_SML_T
1000
name
1000
13
  0
TEXT
  5
3B9
330
31F
100
AcDbEntity
  8
6文字层
 62
     3
100
AcDbText
 10
103.9163394851074
 20
72.69373062660952
 30
0.0
 40
3.0
  1
1
 41
0.6999999999999999
  7
HZTXT
 72
     1
 11
104.7663394851074
 21
72.69373062660952
 31
0.0
100
AcDbText
1001
CDA_BG_MXB_T
1070
    12
1070
     4
1000
11
1000
1EF9
  0
TEXT
  5
3BA
330
31F
100
AcDbEntity
  8
6文字层
100
AcDbText
 10
153.7298973262356
 20
72.48655951221819
 30
0.0
 40
3.0
  1
-
 41
0.6999999999999999
  7
HZTXT
 72
     4
 11
155.0298973262356
 21
73.77227379793248
 31
0.0
100
AcDbText
  0
TEXT
  5
3BB
330
31F
100
AcDbEntity
  8
6文字层
100
AcDbText
 10
47.13770230383352
 20
71.04433006194267
 30
0.0
 40
2.0
  1
INTERNAL PARTS2
 41
0.6999999880790711
  7
HZTXT
100
AcDbText
1001
CDA_SML_T
1000
name
1000
13
  0
TEXT
  5
3BC
330
31F
100
AcDbEntity
  8
6文字层
100
AcDbText
 10
167.1553007048202
 20
72.45832299562881
 30
0.0
 40
3.0
  1
客供图
 41
0.6999999880790711
  7
HZ
 72
     1
 11
170.214355770835
 21
72.45832299562881
 31
0.0
100
AcDbText
1001
CDA_BG_MXB_T
1000

  0
TEXT
  5
3BD
330
31F
100
AcDbEntity
  8
6文字层
100
AcDbText
 10
121.7057175153918
 20
72.15442108231854
 30
0.0
 40
3.5
  1
组合件
 41
0.7
  7
HZ
 72
     1
 11
125.3903631846832
 21
72.15442108231854
 31
0.0
100
AcDbText
1001
CDA_SML_T
1000

  0
ENDBLK
  5
3C1
330
31F
100
AcDbEntity
  8
0
100
AcDbBlockEnd
  0
BLOCK
  5
3CF
330
3CD
100
AcDbEntity
  8
0
100
AcDbBlockBegin
  2
A$C2011cb47
 70
     0
 10
0.0
 20
0.0
 30
0.0
  3
A$C2011cb47
  1

  0
LINE
  5
3CE
330
3CD
100
AcDbEntity
  8
1轮廓实线层
100
AcDbLine
 10
0.0
 20
0.0
 30
0.0
 11
179.9089673114359
 21
0.0
 31
0.0
  0
ENDBLK
  5
3D0
330
3CD
100
AcDbEntity
  8
0
100
AcDbBlockEnd
  0
ENDSEC
  0
SECTION
  2
ENTITIES
  0
TEXT
  5
281
330
70
100
AcDbEntity
  8
6文字层
100
AcDbText
 10
328.084869244687
 20
200.0985671165545
 30
0.0
 40
3.0
  1
DN1600 δ=10 L=32500
 41
0.6999999999999999
  7
HZTXT
100
AcDbText
1001
CDA_SML_T
1000
name
1000
13
  0
TEXT
  5
282
330
70
100
AcDbEntity
  8
6文字层
 62
     3
100
AcDbText
 10
370.0594873241517
 20
198.305164440435
 30
0.0
 40
3.0
  1
1
 41
0.6999999999999999
  7
HZTXT
 72
     1
 11
370.9094873241518
 21
198.305164440435
 31
0.0
100
AcDbText
1001
CDA_BG_MXB_T
1070
    12
1070
     4
1000
11
1000
1EF9
  0
TEXT
  5
283
330
70
100
AcDbEntity
  8
6文字层
 62
     3
100
AcDbText
 10
313.0229504227663
 20
200.0898602593152
 30
0.0
 40
3.5
  1
筒体
 41
0.7
  7
HZTXT
100
AcDbText
1001
CDA_SML_T
1000
name
1000
13
  0
TEXT
  5
284
330
70
100
AcDbEntity
  8
2
 48
200.0
100
AcDbText
 10
313.0479695798257
 20
197.2042398175545
 30
0.0
 40
2.0
  1
SHELL
 41
0.7
  7
HZTXT
100
AcDbText
1001
CDA_SML_T
1000
name
1000
13
  0
TEXT
  5
285
330
70
100
AcDbEntity
  8
6文字层
100
AcDbText
 10
416.4367910882933
 20
198.1148857957805
 30
0.0
 40
3.0
  1
13036
 41
0.65
  7
HZTXT
 72
     4
 11
421.2189339454361
 21
199.6148857957805
 31
0.0
100
AcDbText
  0
TEXT
  5
286
330
70
100
AcDbEntity
  8
6文字层
100
AcDbText
 10
417.3137742848116
 20
174.4425850500347
 30
0.0
 40
3.0
  1
3030
 41
0.6999999880790711
  7
HZ
 72
     1
 11
421.3137742166919
 21
174.4425850500347
 31
0.0
100
AcDbText
1001
CDA_BG_MXB_T
1000

  0
TEXT
  5
287
330
70
100
AcDbEntity
  8
6文字层
100
AcDbText
 10
387.7349474281644
 20
174.1386831366853
 30
0.0
 40
3.5
  1
组合件
 41
0.7
  7
HZ
 72
     1
 11
391.4195930974557
 21
174.1386831366853
 31
0.0
100
AcDbText
1001
CDA_SML_T
1000

  0
TEXT
  5
288
330
70
100
AcDbEntity
  8
6文字层
100
AcDbText
 10
313.2402490405284
 20
175.6824878497409
 30
0.0
 40
3.5
  1
裙座
 41
0.6999999880790711
  7
HZ
100
AcDbText
1001
CDA_SML_T
1000

  0
TEXT
  5
289
330
70
100
AcDbEntity
  8
2
 48
200.0
100
AcDbText
 10
312.935226470755
 20
173.0176871677422
 30
0.0
 40
2.0
  1
SKIRT
 41
0.7
  7
HZTXT
100
AcDbText
1001
CDA_SML_T
1000
name
1000
13
  0
TEXT
  5
28A
330
70
100
AcDbEntity
  8
6文字层
100
AcDbText
 10
370.3785216295596
 20
174.3840317465565
 30
0.0
 40
3.0
  1
1
 41
0.6999999999999999
  7
HZTXT
 72
     1
 11
371.2285216295596
 21
174.3840317465565
 31
0.0
100
AcDbText
1001
CDA_SML_T
1000
scal
1000
13
  0
TEXT
  5
28B
330
70
100
AcDbEntity
  8
6文字层
100
AcDbText
 10
282.6268151307601
 20
174.1683913108991
 30
0.0
 40
3.0
  1
NCY24-S008-01
 41
0.7
  7
HZTXT
 72
     1
 11
296.02681513076
 21
174.1683913108991
 31
0.0
100
AcDbText
1001
CDA_BG_MXB_T
1070
     2
1070
     2
1000
11
  0
LINE
  5
28C
330
70
100
AcDbEntity
  8
1轮廓实线层
100
AcDbLine
 10
266.2560628883401
 20
172.1020862415334
 30
0.0
 11
446.165030199776
 21
172.1020862415334
 31
0.0
  0
TEXT
  5
28D
330
70
100
AcDbEntity
  8
6文字层
 62
     3
100
AcDbText
 10
270.6883201414347
 20
164.6626509517682
 30
0.0
 40
3.5
  1
件 号
 41
0.7
  7
HZTXT
100
AcDbText
  0
TEXT
  5
28E
330
70
100
AcDbEntity
  8
6文字层
 62
     3
100
AcDbText
 10
268.3388618904079
 20
159.8622555917263
 30
0.0
 40
2.0
  1
PARTS .NO.
 41
0.7
  7
HZTXT
 72
     1
 11
274.024951129253
 21
159.8622555917263
 31
0.0
100
AcDbText
  0
LINE
  5
28F
330
70
100
AcDbEntity
  8
1轮廓实线层
100
AcDbLine
 10
426.2603700973886
 20
164.6020862415334
 30
0.0
 11
406.2603700973886
 21
164.6020862415334
 31
0.0
  0
TEXT
  5
290
330
70
100
AcDbEntity
  8
6文字层
 62
     3
100
AcDbText
 10
414.5785855566246
 20
159.8050376702467
 30
0.0
 40
2.0
  1
MASS（kg）
 41
0.7
  7
HZTXT
100
AcDbText
  0
TEXT
  5
291
330
70
100
AcDbEntity
  8
6文字层
 62
     3
100
AcDbText
 10
285.6819902145397
 20
159.8622555917263
 30
0.0
 40
2.0
  1
DWG NO. OR STD. NO.
 41
0.7
  7
HZTXT
100
AcDbText
  0
TEXT
  5
292
330
70
100
AcDbEntity
  8
6文字层
 62
     3
100
AcDbText
 10
288.6838112257282
 20
164.6350918966654
 30
0.0
 40
3.5
  1
图号或标准号
 41
0.7
  7
HZTXT
100
AcDbText
  0
TEXT
  5
293
330
70
100
AcDbEntity
  8
6文字层
 62
     3
100
AcDbText
 10
331.3156096147468
 20
159.8622555917263
 30
0.0
 40
2.0
  1
PARTS. NAME.
 41
0.7
  7
HZTXT
100
AcDbText
  0
TEXT
  5
294
330
70
100
AcDbEntity
  8
6文字层
 62
     3
100
AcDbText
 10
333.5508635333135
 20
164.6626509517682
 30
0.0
 40
3.5
  1
名   称
 41
0.7
  7
HZTXT
100
AcDbText
  0
TEXT
  5
295
330
70
100
AcDbEntity
  8
6文字层
 62
     3
100
AcDbText
 10
369.1480101328671
 20
160.4304336339137
 30
0.0
 40
2.0
  1
QTY.
 41
0.7
  7
HZTXT
100
AcDbText
  0
TEXT
  5
296
330
70
100
AcDbEntity
  8
6文字层
 62
     3
100
AcDbText
 10
368.7564570439608
 20
164.6626509517682
 30
0.0
 40
3.5
  1
数量
 41
0.7
  7
HZTXT
100
AcDbText
  0
TEXT
  5
297
330
70
100
AcDbEntity
  8
6文字层
 62
     3
100
AcDbText
 10
389.1953806357087
 20
160.4304336339137
 30
0.0
 40
2.0
  1
MAT'L
 41
0.7
  7
HZTXT
100
AcDbText
  0
TEXT
  5
298
330
70
100
AcDbEntity
  8
6文字层
 62
     3
100
AcDbText
 10
387.8124280051888
 20
164.6626509517682
 30
0.0
 40
3.5
  1
材  料
 41
0.7
  7
HZTXT
100
AcDbText
  0
TEXT
  5
299
330
70
100
AcDbEntity
  8
6文字层
 62
     3
100
AcDbText
 10
408.7424495343912
 20
158.9766273958976
 30
0.0
 40
3.5
  1
质量
 41
0.7
  7
HZTXT
100
AcDbText
  0
TEXT
  5
29A
330
70
100
AcDbEntity
  8
6文字层
 62
     3
100
AcDbText
 10
408.1480496327022
 20
165.550468256728
 30
0.0
 40
2.0
  1
SINGLE
 41
0.7
  7
HZTXT
100
AcDbText
  0
TEXT
  5
29B
330
70
100
AcDbEntity
  8
6文字层
 62
     3
100
AcDbText
 10
410.0430443757541
 20
168.1255942965526
 30
0.0
 40
3.5
  1
单
 41
0.7
  7
HZTXT
100
AcDbText
  0
TEXT
  5
29C
330
70
100
AcDbEntity
  8
6文字层
 62
     3
100
AcDbText
 10
419.8776536273398
 20
168.3278130025737
 30
0.0
 40
3.5
  1
总
 41
0.7
  7
HZTXT
100
AcDbText
  0
TEXT
  5
29D
330
70
100
AcDbEntity
  8
6文字层
 62
     3
100
AcDbText
 10
418.8936698090146
 20
165.550468256728
 30
0.0
 40
2.0
  1
TOTAL
 41
0.7
  7
HZTXT
100
AcDbText
  0
TEXT
  5
29E
330
70
100
AcDbEntity
  8
6文字层
 62
     3
100
AcDbText
 10
432.5674146726067
 20
164.9004903053228
 30
0.0
 40
3.5
  1
备 注
 41
0.7
  7
HZTXT
 72
     1
 11
435.5865091607957
 21
164.9004903053228
 31
0.0
100
AcDbText
  0
TEXT
  5
29F
330
70
100
AcDbEntity
  8
6文字层
 62
     3
100
AcDbText
 10
431.7306938415385
 20
160.4001196552508
 30
0.0
 40
2.0
  1
REMARKS
 41
0.7
  7
HZTXT
100
AcDbText
  0
LINE
  5
2A0
330
70
100
AcDbEntity
  8
2细线层
100
AcDbLine
 10
446.1650300756773
 20
204.1020861616094
 30
0.0
 11
266.2560628883402
 21
204.1020861616094
 31
0.0
  0
LINE
  5
2A1
330
70
100
AcDbEntity
  8
2细线层
100
AcDbLine
 10
446.1632257729116
 20
220.1020861216475
 30
0.0
 11
266.2542586475074
 21
220.1020861216475
 31
0.0
  0
LINE
  5
2A2
330
70
100
AcDbEntity
  8
2细线层
100
AcDbLine
 10
446.1571101281597
 20
228.1020861016532
 30
0.0
 11
266.2481428787732
 21
228.1020861016532
 31
0.0
  0
TEXT
  5
2A3
330
70
100
AcDbEntity
  8
6文字层
 62
     3
100
AcDbText
 10
272.0728765702452
 20
182.4803307255051
 30
0.0
 40
3.5
  1
2
 41
0.7
  7
HZTXT
100
AcDbText
1001
CDA_BG_MXB_T
1070
     2
1070
     1
1000
11
1000
1F07
  0
TEXT
  5
2A4
330
70
100
AcDbEntity
  8
6文字层
 62
     3
100
AcDbText
 10
272.0728765391623
 20
174.4803307454995
 30
0.0
 40
3.5
  1
1
 41
0.7
  7
HZTXT
100
AcDbText
1001
CDA_BG_MXB_T
1070
     2
1070
     1
1000
11
1000
1F07
  0
TEXT
  5
2A5
330
70
100
AcDbEntity
  8
6文字层
 62
     3
100
AcDbText
 10
272.0710721433834
 20
190.4803307255051
 30
0.0
 40
3.5
  1
3
 41
0.7
  7
HZTXT
100
AcDbText
1001
CDA_BG_MXB_T
1070
     2
1070
     1
1000
11
1000
1F07
  0
TEXT
  5
2A6
330
70
100
AcDbEntity
  8
6文字层
 62
     3
100
AcDbText
 10
272.0710721123005
 20
206.4803307255029
 30
0.0
 40
3.5
  1
5
 41
0.7
  7
HZTXT
100
AcDbText
1001
CDA_BG_MXB_T
1070
     2
1070
     1
1000
11
1000
1F07
  0
TEXT
  5
2A7
330
70
100
AcDbEntity
  8
6文字层
 62
     3
100
AcDbText
 10
272.0710721123005
 20
198.5989845840127
 30
0.0
 40
3.5
  1
4
 41
0.7
  7
HZTXT
100
AcDbText
1001
CDA_BG_MXB_T
1070
     2
1070
     1
1000
11
1000
1F07
  0
TEXT
  5
2A8
330
70
100
AcDbEntity
  8
6文字层
 62
     3
100
AcDbText
 10
272.0692677784518
 20
214.4803306455524
 30
0.0
 40
3.5
  1
6
 41
0.7
  7
HZTXT
100
AcDbText
1001
CDA_BG_MXB_T
1070
     2
1070
     1
1000
11
1000
1F07
  0
TEXT
  5
2A9
330
70
100
AcDbEntity
  8
6文字层
 62
     3
100
AcDbText
 10
272.0631521647829
 20
222.480330625558
 30
0.0
 40
3.5
  1
7
 41
0.7
  7
HZTXT
100
AcDbText
1001
CDA_BG_MXB_T
1070
     2
1070
     1
1000
11
1000
1F07
  0
TEXT
  5
2AA
330
70
100
AcDbEntity
  8
6文字层
100
AcDbText
 10
384.7892569610657
 20
198.3779547972217
 30
0.0
 40
3.0
  1
S30408
 41
0.6999999999999999
  7
HZTXT
 72
     4
 11
390.7892569610657
 21
199.8779547972217
 31
0.0
100
AcDbText
  0
TEXT
  5
2AB
330
70
100
AcDbEntity
  8
6文字层
 62
     3
100
AcDbText
 10
271.328596645074
 20
246.4803305655737
 30
0.0
 40
3.5
  1
10
 41
0.6999999880790711
  7
HZTXT
100
AcDbText
1001
CDA_BG_MXB_T
1070
     2
1070
     1
1000
11
1000
1F07
  0
TEXT
  5
2AC
330
70
100
AcDbEntity
  8
6文字层
 62
     3
100
AcDbText
 10
271.3485603572099
 20
270.4803305055907
 30
0.0
 40
3.5
  1
13
 41
0.6999999880790711
  7
HZTXT
100
AcDbText
1001
CDA_BG_MXB_T
1070
     2
1070
     1
1000
11
1000
1F07
  0
TEXT
  5
2AD
330
70
100
AcDbEntity
  8
6文字层
 62
     3
100
AcDbText
 10
271.3485603572099
 20
278.4803304855964
 30
0.0
 40
3.5
  1
14
 41
0.6999999880790711
  7
HZTXT
100
AcDbText
1001
CDA_BG_MXB_T
1070
     2
1070
     1
1000
11
1000
1F07
  0
LINE
  5
2AE
330
70
100
AcDbEntity
  8
2细线层
100
AcDbLine
 10
446.1650301377267
 20
244.1020860616632
 30
0.0
 11
266.2560628883402
 21
244.1020860616632
 31
0.0
  0
TEXT
  5
2AF
330
70
100
AcDbEntity
  8
6文字层
 62
     3
100
AcDbText
 10
272.4903710610933
 20
230.4803306055637
 30
0.0
 40
3.5
  1
8
 41
0.6999999880790711
  7
HZTXT
100
AcDbText
1001
CDA_BG_MXB_T
1070
     2
1070
     1
1000
11
1000
1F07
  0
TEXT
  5
2B0
330
70
100
AcDbEntity
  8
6文字层
 62
     3
100
AcDbText
 10
272.4724845903038
 20
238.480330585568
 30
0.0
 40
3.5
  1
9
 41
0.6999999880790711
  7
HZTXT
100
AcDbText
1001
CDA_BG_MXB_T
1070
     2
1070
     1
1000
11
1000
1F07
  0
TEXT
  5
2B1
330
70
100
AcDbEntity
  8
6文字层
100
AcDbText
 10
282.1500626998917
 20
206.4101716789928
 30
0.0
 40
3.0
  1
NCY24-S004-02
 41
0.7
  7
HZTXT
100
AcDbText
  0
TEXT
  5
2B2
330
70
100
AcDbEntity
  8
6文字层
100
AcDbText
 10
313.2718296515253
 20
208.1485803390433
 30
0.0
 40
3.5
  1
接管组件
 41
0.7
  7
HZTXT
100
AcDbText
1001
CDA_SML_T
1000
name
1000
13
  0
TEXT
  5
2B3
330
70
100
AcDbEntity
  8
6文字层
100
AcDbText
 10
313.2718296515253
 20
205.5514082337077
 30
0.0
 40
2.0
  1
PIPE
 41
0.7
  7
HZTXT
100
AcDbText
1001
CDA_SML_T
1000
name
1000
13
  0
TEXT
  5
2B4
330
70
100
AcDbEntity
  8
6文字层
 62
     3
100
AcDbText
 10
370.1507195861166
 20
206.9996358084582
 30
0.0
 40
3.0
  1
1
 41
0.6999999999999999
  7
HZTXT
 72
     1
 11
371.0007195861166
 21
206.9996358084582
 31
0.0
100
AcDbText
1001
CDA_BG_MXB_T
1070
    12
1070
     4
1000
11
1000
1EF9
  0
TEXT
  5
2B5
330
70
100
AcDbEntity
  8
6文字层
100
AcDbText
 10
417.2642774272447
 20
206.5781789797811
 30
0.0
 40
3.0
  1
2530
 41
0.6999999999999999
  7
HZTXT
 72
     4
 11
421.2642774272447
 21
208.0781789797811
 31
0.0
100
AcDbText
  0
TEXT
  5
2B6
330
70
100
AcDbEntity
  8
6文字层
 62
     3
100
AcDbText
 10
313.3611905476418
 20
192.1465489191018
 30
0.0
 40
3.5
  1
铭牌及支架
 41
0.7
  7
HZTXT
100
AcDbText
1001
CDA_SML_T
1000
name
1000
13
  0
TEXT
  5
2B7
330
70
100
AcDbEntity
  8
6文字层
100
AcDbText
 10
370.8793622892813
 20
190.6306020284451
 30
0.0
 40
3.0
  1
1
 41
0.6999999999999999
  7
HZTXT
 72
     1
 11
371.7293622892813
 21
190.6306020284451
 31
0.0
100
AcDbText
1001
CDA_BG_MXB_T
1070
    12
1070
     4
1000
11
1000
1EF9
  0
TEXT
  5
2B8
330
70
100
AcDbEntity
  8
6文字层
100
AcDbText
 10
283.4732424179149
 20
190.5283423181185
 30
0.0
 40
3.0
  1
NCY-ST-001-3
 41
0.7
  7
HZTXT
 72
     1
 11
296.2732424179149
 21
190.5283423181185
 31
0.0
100
AcDbText
1001
CDA_BG_MXB_T
1070
     2
1070
     2
1000
11
  0
TEXT
  5
2B9
330
70
100
AcDbEntity
  8
6文字层
100
AcDbText
 10
378.5158507515936
 20
190.6014284912585
 30
0.0
 40
3.0
  1
S30408/Q345R
 41
0.6999999999999999
  7
HZTXT
 72
     1
 11
390.7658507515936
 21
190.6014284912585
 31
0.0
100
AcDbText
1001
CDA_SML_T
1000
cale
1000
13
  0
TEXT
  5
2BA
330
70
100
AcDbEntity
  8
6文字层
100
AcDbText
 10
313.3611905476418
 20
189.5493768137662
 30
0.0
 40
2.0
  1
NAMEPLATE & BRACKET
 41
0.7
  7
HZTXT
100
AcDbText
1001
CDA_SML_T
1000
name
1000
13
  0
TEXT
  5
2BB
330
70
100
AcDbEntity
  8
6文字层
100
AcDbText
 10
418.5631979735991
 20
190.6297532789453
 30
0.0
 40
3.0
  1
2.5
 41
0.6999999999999999
  7
HZTXT
 72
     1
 11
421.0631979735991
 21
190.6297532789453
 31
0.0
100
AcDbText
1001
CDA_BG_MXB_T
1070
    12
1070
     4
1000
11
1000
1EF9
  0
LINE
  5
2BC
330
70
100
AcDbEntity
  8
2细线层
100
AcDbLine
 10
446.1650301377267
 20
252.1020860416688
 30
0.0
 11
266.2560628883402
 21
252.1020860416688
 31
0.0
  0
LINE
  5
2BD
330
70
100
AcDbEntity
  8
1轮廓实线层
100
AcDbLine
 10
376.260370097392
 20
172.1020862415334
 30
0.0
 11
376.2603700973939
 21
284.1020859616915
 31
0.0
  0
LINE
  5
2BE
330
70
100
AcDbEntity
  8
1轮廓实线层
100
AcDbLine
 10
281.2603700973748
 20
284.1020859616915
 30
0.0
 11
281.2603700973745
 21
172.1020862415334
 31
0.0
  0
LINE
  5
2BF
330
70
100
AcDbEntity
  8
1轮廓实线层
100
AcDbLine
 10
311.2603700974072
 20
172.1020862415334
 30
0.0
 11
311.2603700974083
 21
284.1020859616915
 31
0.0
  0
LINE
  5
2C0
330
70
100
AcDbEntity
  8
1轮廓实线层
100
AcDbLine
 10
366.2603700974188
 20
172.1020862415334
 30
0.0
 11
366.2603700973717
 21
284.1020859616915
 31
0.0
  0
LINE
  5
2C1
330
70
100
AcDbEntity
  8
1轮廓实线层
100
AcDbLine
 10
406.260370097394
 20
172.1020862415334
 30
0.0
 11
406.260370097393
 21
284.1020859616915
 31
0.0
  0
LINE
  5
2C2
330
70
100
AcDbEntity
  8
1轮廓实线层
100
AcDbLine
 10
426.2603700973611
 20
172.1020862415334
 30
0.0
 11
426.2603700973593
 21
284.1020859616915
 31
0.0
  0
LINE
  5
2C3
330
70
100
AcDbEntity
  8
1轮廓实线层
100
AcDbLine
 10
416.2603700973858
 20
172.1020862415334
 30
0.0
 11
416.2603700973857
 21
284.1020859616915
 31
0.0
  0
LINE
  5
2C4
330
70
100
AcDbEntity
  8
1.轮廓实线层
100
AcDbLine
 10
266.2560628883404
 20
158.1020862015443
 30
0.0
 11
266.2560628883404
 21
284.1020859616915
 31
0.0
  0
TEXT
  5
2C5
330
70
100
AcDbEntity
  8
6文字层
 62
     3
100
AcDbText
 10
271.328596645074
 20
254.4803305455793
 30
0.0
 40
3.5
  1
11
 41
0.6999999880790711
  7
HZTXT
100
AcDbText
1001
CDA_BG_MXB_T
1070
     2
1070
     1
1000
11
1000
1F07
  0
LINE
  5
2C6
330
70
100
AcDbEntity
  8
2细线层
100
AcDbLine
 10
446.1650301377267
 20
260.1020860216745
 30
0.0
 11
266.2560628883402
 21
260.1020860216745
 31
0.0
  0
LINE
  5
2C7
330
70
100
AcDbEntity
  8
2细线层
100
AcDbLine
 10
446.1650301377267
 20
276.1020859816858
 30
0.0
 11
266.2560628883402
 21
276.1020859816858
 31
0.0
  0
LINE
  5
2C8
330
70
100
AcDbEntity
  8
2细线层
100
AcDbLine
 10
446.1650301377267
 20
268.1020860016801
 30
0.0
 11
266.2560628883402
 21
268.1020860016801
 31
0.0
  0
LINE
  5
2C9
330
70
100
AcDbEntity
  8
2细线层
100
AcDbLine
 10
446.1571101281597
 20
236.1020860816589
 30
0.0
 11
266.2481428787732
 21
236.1020860816589
 31
0.0
  0
LINE
  5
2CA
330
70
100
AcDbEntity
  8
2细线层
100
AcDbLine
 10
446.1650300756773
 20
212.1020861416418
 30
0.0
 11
266.2560628883402
 21
212.1020861416418
 31
0.0
  0
LINE
  5
2CB
330
70
100
AcDbEntity
  8
Cont
100
AcDbLine
 10
446.167537280291
 20
210.1020862015444
 30
0.0
 11
446.1650301377233
 21
284.1020859616915
 31
0.0
  0
LINE
  5
2CC
330
70
100
AcDbEntity
  8
1轮廓实线层
100
AcDbLine
 10
446.1650300756773
 20
158.1020862015443
 30
0.0
 11
446.1650300756773
 21
210.1020862015444
 31
0.0
  0
LINE
  5
2CD
330
70
100
AcDbEntity
  8
1轮廓实线层
100
AcDbLine
 10
376.2603700973966
 20
158.1020862015448
 30
0.0
 11
376.2603700973966
 21
172.1020862415334
 31
0.0
  0
LINE
  5
2CE
330
70
100
AcDbEntity
  8
1轮廓实线层
100
AcDbLine
 10
281.2603700973783
 20
172.1020862415334
 30
0.0
 11
281.2603700973784
 21
158.1020862015448
 31
0.0
  0
LINE
  5
2CF
330
70
100
AcDbEntity
  8
1轮廓实线层
100
AcDbLine
 10
311.2603700974112
 20
158.1020862015448
 30
0.0
 11
311.2603700974115
 21
172.1020862415334
 31
0.0
  0
LINE
  5
2D0
330
70
100
AcDbEntity
  8
1轮廓实线层
100
AcDbLine
 10
366.2603700974075
 20
158.1020862015448
 30
0.0
 11
366.2603700974019
 21
172.1020862415334
 31
0.0
  0
LINE
  5
2D1
330
70
100
AcDbEntity
  8
1轮廓实线层
100
AcDbLine
 10
406.2603700973966
 20
158.1020862015448
 30
0.0
 11
406.2603700973966
 21
172.1020862415334
 31
0.0
  0
LINE
  5
2D2
330
70
100
AcDbEntity
  8
1轮廓实线层
100
AcDbLine
 10
426.2603700973638
 20
158.1020862015448
 30
0.0
 11
426.2603700973638
 21
172.1020862415334
 31
0.0
  0
LINE
  5
2D3
330
70
100
AcDbEntity
  8
1轮廓实线层
100
AcDbLine
 10
416.2603700973893
 20
164.6020862415334
 30
0.0
 11
416.2603700973895
 21
172.1020862415334
 31
0.0
  0
TEXT
  5
2D4
330
70
100
AcDbEntity
  8
2细线层
 62
     3
100
AcDbText
 10
313.6566460311739
 20
183.8855383906043
 30
0.0
 40
3.5
  1
接地板
 41
0.6999999880790711
  7
HZTXT
100
AcDbText
1001
CDA_SML_T
1000
name
1000
13
  0
TEXT
  5
2D5
330
70
100
AcDbEntity
  8
2
 48
200.0
100
AcDbText
 10
313.656646031183
 20
181.2883662852687
 30
0.0
 40
2.0
  1
EARTH LUG
 41
0.7
  7
HZTXT
100
AcDbText
1001
CDA_SML_T
1000
name
1000
13
  0
TEXT
  5
2D6
330
70
100
AcDbEntity
  8
6文字层
100
AcDbText
 10
370.6285662736742
 20
182.3772796813655
 30
0.0
 40
3.0
  1
2
 41
0.6999999999999999
  7
HZTXT
 72
     1
 11
371.6285662736742
 21
182.3772796813655
 31
0.0
100
AcDbText
1001
CDA_BG_MXB_T
1070
    12
1070
     4
1000
11
1000
1EF9
  0
TEXT
  5
2D7
330
70
100
AcDbEntity
  8
6文字层
100
AcDbText
 10
385.0700654421586
 20
182.3394689493211
 30
0.0
 40
3.0
  1
S30408
 41
0.6999999999999999
  7
HZTXT
 72
     1
 11
391.0700654421586
 21
182.3394689493211
 31
0.0
100
AcDbText
1001
CDA_SML_T
1000
cale
1000
13
  0
TEXT
  5
2D8
330
70
100
AcDbEntity
  8
2细线层
 62
     3
100
AcDbText
 10
329.9371148637189
 20
184.0144033305837
 30
0.0
 40
3.0
  1
100X50X10
 41
0.6999999999999999
  7
HZTXT
100
AcDbText
1001
CDA_SML_T
1000
name
1000
13
  0
TEXT
  5
2D9
330
70
100
AcDbEntity
  8
6文字层
100
AcDbText
 10
419.4883188364206
 20
182.3686425263581
 30
0.0
 40
3.0
  1
0.8
 41
0.6999999999999999
  7
HZTXT
 72
     1
 11
421.9883188364207
 21
182.3686425263581
 31
0.0
100
AcDbText
1001
CDA_BG_MXB_T
1070
    12
1070
     4
1000
11
1000
1EF9
  0
TEXT
  5
2DA
330
70
100
AcDbEntity
  8
6文字层
100
AcDbText
 10
409.4383188364197
 20
182.3686425163609
 30
0.0
 40
3.0
  1
0.4
 41
0.6999999999999999
  7
HZTXT
 72
     1
 11
411.9883188364197
 21
182.3686425163609
 31
0.0
100
AcDbText
1001
CDA_BG_MXB_T
1070
    12
1070
     4
1000
11
1000
1EF9
  0
TEXT
  5
2DB
330
70
100
AcDbEntity
  8
2细线层
 62
     3
100
AcDbText
 10
285.6247690116912
 20
182.7189637239089
 30
0.0
 40
3.0
  1
NCY-ST-002
 41
0.6999999880790711
  7
HZTXT
 72
     1
 11
296.1247688328773
 21
182.7189637239089
 31
0.0
100
AcDbText
1001
CDA_BG_MXB_T
1070
     2
1070
     2
1000
11
  0
TEXT
  5
2DC
330
70
100
AcDbEntity
  8
6文字层
 62
     3
100
AcDbText
 10
271.3485603572099
 20
262.480330525585
 30
0.0
 40
3.5
  1
12
 41
0.6999999880790711
  7
HZTXT
100
AcDbText
1001
CDA_BG_MXB_T
1070
     2
1070
     1
1000
11
1000
1F07
  0
TEXT
  5
2DD
330
70
100
AcDbEntity
  8
6文字层
100
AcDbText
 10
282.1500626998893
 20
262.2063526187099
 30
0.0
 40
3.0
  1
GB/T25198-2023
 41
0.7
  7
HZTXT
100
AcDbText
  0
TEXT
  5
2DE
330
70
100
AcDbEntity
  8
6文字层
100
AcDbText
 10
329.5522984841081
 20
264.07362619876
 30
0.0
 40
3.0
  1
EHA1600x10(8.6) h=25
 41
0.65
  7
HZTXT
100
AcDbText
1001
CDA_SML_T
1000
name
1000
13
  0
TEXT
  5
2DF
330
70
100
AcDbEntity
  8
6文字层
100
AcDbText
 10
313.2718296515229
 20
263.9447612787603
 30
0.0
 40
3.5
  1
椭圆形封头
 41
0.7
  7
HZTXT
100
AcDbText
1001
CDA_SML_T
1000
name
1000
13
  0
TEXT
  5
2E0
330
70
100
AcDbEntity
  8
6文字层
100
AcDbText
 10
313.2718296515229
 20
261.3475891734247
 30
0.0
 40
2.0
  1
ELLIPSE HEAD
 41
0.7
  7
HZTXT
100
AcDbText
1001
CDA_SML_T
1000
name
1000
13
  0
TEXT
  5
2E1
330
70
100
AcDbEntity
  8
6文字层
100
AcDbText
 10
384.8208376030378
 20
262.6374289409264
 30
0.0
 40
3.0
  1
S30408
 41
0.6999999999999999
  7
HZTXT
 72
     4
 11
390.8208376030378
 21
264.1374289409264
 31
0.0
100
AcDbText
  0
TEXT
  5
2E2
330
70
100
AcDbEntity
  8
6文字层
 62
     3
100
AcDbText
 10
370.0007195861143
 20
262.7958167481752
 30
0.0
 40
3.0
  1
2
 41
0.6999999999999999
  7
HZTXT
 72
     1
 11
371.0007195861143
 21
262.7958167481752
 31
0.0
100
AcDbText
1001
CDA_BG_MXB_T
1070
    12
1070
     4
1000
11
1000
1EF9
  0
TEXT
  5
2E3
330
70
100
AcDbEntity
  8
6文字层
100
AcDbText
 10
418.2642774783322
 20
262.3743599194981
 30
0.0
 40
3.0
  1
552
 41
0.6999999880790711
  7
HZ
 72
     4
 11
421.2642774272425
 21
263.8743599194981
 31
0.0
100
AcDbText
  0
TEXT
  5
2E4
330
70
100
AcDbEntity
  8
6文字层
100
AcDbText
 10
313.2855924292927
 20
224.3064325836995
 30
0.0
 40
3.5
  1
内件1
 41
0.7
  7
HZTXT
100
AcDbText
1001
CDA_SML_T
1000
name
1000
13
  0
TEXT
  5
2E5
330
70
100
AcDbEntity
  8
6文字层
 62
     3
100
AcDbText
 10
370.164482363884
 20
222.7958168481482
 30
0.0
 40
3.0
  1
1
 41
0.6999999999999999
  7
HZTXT
 72
     1
 11
371.014482363884
 21
222.7958168481482
 31
0.0
100
AcDbText
1001
CDA_BG_MXB_T
1070
    12
1070
     4
1000
11
1000
1EF9
  0
TEXT
  5
2E6
330
70
100
AcDbEntity
  8
6文字层
100
AcDbText
 10
419.9780402050121
 20
222.5886457337569
 30
0.0
 40
3.0
  1
-
 41
0.6999999999999999
  7
HZTXT
 72
     4
 11
421.2780402050121
 21
223.8743600194712
 31
0.0
100
AcDbText
  0
TEXT
  5
2E7
330
70
100
AcDbEntity
  8
6文字层
100
AcDbText
 10
313.3858451826101
 20
221.1464162834813
 30
0.0
 40
2.0
  1
INTERNAL PARTS1
 41
0.6999999880790711
  7
HZTXT
100
AcDbText
1001
CDA_SML_T
1000
name
1000
13
  0
TEXT
  5
2E8
330
70
100
AcDbEntity
  8
2细线层
 62
     3
100
AcDbText
 10
329.5190560798671
 20
272.2633852273893
 30
0.0
 40
3.0
  1
SP-8-35
 41
0.6999999999999999
  7
HZTXT
100
AcDbText
1001
CDA_SML_T
1000
name
1000
13
  0
TEXT
  5
2E9
330
70
100
AcDbEntity
  8
6文字层
100
AcDbText
 10
282.1394734613002
 20
270.3491730060723
 30
0.0
 40
3.0
  1
HG/T21574-2018
 41
0.6999999880790711
  7
HZ
100
AcDbText
1001
CDA_SML_T
1000

  0
TEXT
  5
2EA
330
70
100
AcDbEntity
  8
6文字层
100
AcDbText
 10
313.2230414433995
 20
271.865713871317
 30
0.0
 40
3.5
  1
设备吊耳
 41
0.7
  7
HZ
100
AcDbText
1001
CDA_SML_T
1000

  0
TEXT
  5
2EB
330
70
100
AcDbEntity
  8
6文字层
100
AcDbText
 10
313.2230414433995
 20
269.2685417659813
 30
0.0
 40
2.0
  1
LIFTING LUG
 41
0.6999999880790711
  7
HZ
100
AcDbText
1001
CDA_SML_T
1000

  0
TEXT
  5
2EC
330
70
100
AcDbEntity
  8
6文字层
100
AcDbText
 10
370.2113140495297
 20
270.5644584029506
 30
0.0
 40
3.0
  1
2
 41
0.6999999880790711
  7
HZ
 72
     1
 11
371.2113140324998
 21
270.5644584029506
 31
0.0
100
AcDbText
1001
CDA_SML_T
1000

  0
TEXT
  5
2ED
330
70
100
AcDbEntity
  8
6文字层
100
AcDbText
 10
417.8193589699172
 20
270.5755253326824
 30
0.0
 40
3.0
  1
134
 41
0.7
  7
HZ
 72
     4
 11
421.0193589699172
 21
272.0755253326824
 31
0.0
100
AcDbText
  0
TEXT
  5
2EE
330
70
100
AcDbEntity
  8
6文字层
100
AcDbText
 10
408.969358969919
 20
270.5755253326824
 30
0.0
 40
3.0
  1
67
 41
0.7
  7
HZ
 72
     4
 11
411.019358969919
 21
272.0755253326824
 31
0.0
100
AcDbText
  0
TEXT
  5
2EF
330
70
100
AcDbEntity
  8
6文字层
100
AcDbText
 10
378.8360810383617
 20
270.6510054942755
 30
0.0
 40
3.0
  1
Q345R/S30408
 41
0.7
  7
HZTXT
 72
     1
 11
391.0860810383617
 21
270.6510054942755
 31
0.0
100
AcDbText
1001
CDA_SML_T
1000
cale
1000
13
  0
TEXT
  5
2F0
330
70
100
AcDbEntity
  8
6文字层
100
AcDbText
 10
434.345963252585
 20
222.5604092171675
 30
0.0
 40
3.0
  1
客供
 41
0.6999999880790711
  7
HZ
 72
     1
 11
436.4624986496115
 21
222.5604092171675
 31
0.0
100
AcDbText
1001
CDA_BG_MXB_T
1000

  0
LINE
  5
2F1
330
70
100
AcDbEntity
  8
2细线层
100
AcDbLine
 10
446.1650300756773
 20
196.1020861815768
 30
0.0
 11
266.2560628883402
 21
196.1020861815768
 31
0.0
  0
LINE
  5
2F2
330
70
100
AcDbEntity
  8
2细线层
100
AcDbLine
 10
446.1650300756773
 20
188.1020862015443
 30
0.0
 11
266.2560628883402
 21
188.1020862015443
 31
0.0
  0
LINE
  5
2F3
330
70
100
AcDbEntity
  8
2细线层
100
AcDbLine
 10
446.1650300756774
 20
180.1020862215118
 30
0.0
 11
266.2560628883404
 21
180.1020862215118
 31
0.0
  0
TEXT
  5
2F4
330
70
100
AcDbEntity
  8
6文字层
100
AcDbText
 10
370.3802158700491
 20
246.3837599332114
 30
0.0
 40
3.0
  1
1
 41
0.6999999999999999
  7
HZTXT
 72
     1
 11
371.2302158700491
 21
246.3837599332114
 31
0.0
100
AcDbText
1001
CDA_SML_T
1000
scal
1000
13
  0
TEXT
  5
2F5
330
70
100
AcDbEntity
  8
6文字层
 62
     3
100
AcDbText
 10
418.2463494695343
 20
246.1146140423248
 30
0.0
 40
3.0
  1
343
 41
0.6999999999999999
  7
HZTXT
 72
     4
 11
421.2463494695343
 21
247.6146140423248
 31
0.0
100
AcDbText
  0
TEXT
  5
2F6
330
70
100
AcDbEntity
  8
6文字层
 62
     3
100
AcDbText
 10
282.8532648446729
 20
246.5844239681869
 30
0.0
 40
3.0
  1
NCY24-S008-02
 41
0.7
  7
HZTXT
 72
     1
 11
296.5532648446729
 21
246.5844239681869
 31
0.0
100
AcDbText
1001
CDA_SML_T
1000
name
1000
13
  0
TEXT
  5
2F7
330
70
100
AcDbEntity
  8
6文字层
100
AcDbText
 10
408.2642774783395
 20
262.3743599194981
 30
0.0
 40
3.0
  1
226
 41
0.6999999880790711
  7
HZ
 72
     4
 11
411.2642774272499
 21
263.8743599194981
 31
0.0
100
AcDbText
  0
TEXT
  5
2F8
330
70
100
AcDbEntity
  8
6文字层
100
AcDbText
 10
313.1675880863544
 20
277.4060985290448
 30
0.0
 40
2.0
  1
BASE TEMPLATE COMPONENT
 41
0.6999999880790711
  7
HZ
100
AcDbText
1001
CDA_SML_T
1000

  0
TEXT
  5
2F9
330
70
100
AcDbEntity
  8
6文字层
100
AcDbText
 10
313.1675880863544
 20
280.0032706343804
 30
0.0
 40
3.5
  1
基础模板组件
 41
0.7
  7
HZ
100
AcDbText
1001
CDA_SML_T
1000

  0
TEXT
  5
2FA
330
70
100
AcDbEntity
  8
6文字层
100
AcDbText
 10
370.0454615716168
 20
278.7866654149943
 30
0.0
 40
3.0
  1
1
 41
0.6999999880790711
  7
HZ
 72
     1
 11
370.8954615571414
 21
278.7866654149943
 31
0.0
100
AcDbText
1001
CDA_SML_T
1000

  0
TEXT
  5
2FB
330
70
100
AcDbEntity
  8
6文字层
100
AcDbText
 10
416.5535064945588
 20
278.7977323447262
 30
0.0
 40
3.0
  1
1147
 41
0.7
  7
HZ
 72
     4
 11
420.7035064945588
 21
280.2977323447262
 31
0.0
100
AcDbText
  0
TEXT
  5
2FC
330
70
100
AcDbEntity
  8
6文字层
100
AcDbText
 10
387.6119608464679
 20
278.8732125063193
 30
0.0
 40
3.0
  1
组合件
 41
0.7
  7
HZTXT
 72
     1
 11
390.7702285630033
 21
278.8732125063193
 31
0.0
100
AcDbText
1001
CDA_SML_T
1000
cale
1000
13
  0
TEXT
  5
2FD
330
70
100
AcDbEntity
  8
6文字层
 62
     3
100
AcDbText
 10
282.8777424319791
 20
278.6004844209124
 30
0.0
 40
3.0
  1
NCY24-S008-04
 41
0.7
  7
HZTXT
100
AcDbText
1001
CDA_SML_T
1000
name
1000
13
  0
TEXT
  5
2FE
330
70
100
AcDbEntity
  8
6文字层
100
AcDbText
 10
387.9538603941684
 20
222.2565073038572
 30
0.0
 40
3.5
  1
组合件
 41
0.7
  7
HZ
 72
     1
 11
391.6385060634598
 21
222.2565073038572
 31
0.0
100
AcDbText
1001
CDA_SML_T
1000

  0
TEXT
  5
2FF
330
70
100
AcDbEntity
  8
6文字层
100
AcDbText
 10
385.6385060634598
 20
246.2565072438742
 30
0.0
 40
3.0
  1
S30408
 41
0.7
  7
HZ
 72
     1
 11
391.6385060634598
 21
246.2565072438742
 31
0.0
100
AcDbText
1001
CDA_SML_T
1000

  0
TEXT
  5
300
330
70
100
AcDbEntity
  8
6文字层
100
AcDbText
 10
387.9538603941688
 20
206.2565073438473
 30
0.0
 40
3.5
  1
组合件
 41
0.7
  7
HZ
 72
     1
 11
391.6385060634601
 21
206.2565073438473
 31
0.0
100
AcDbText
1001
CDA_SML_T
1000

  0
TEXT
  5
301
330
70
100
AcDbEntity
  8
6文字层
100
AcDbText
 10
313.2855924292897
 20
239.9356900443813
 30
0.0
 40
3.5
  1
外部预焊件
 41
0.7
  7
HZTXT
100
AcDbText
1001
CDA_SML_T
1000
name
1000
13
  0
TEXT
  5
302
330
70
100
AcDbEntity
  8
6文字层
 62
     3
100
AcDbText
 10
370.164482363881
 20
238.7867455137962
 30
0.0
 40
3.0
  1
1
 41
0.6999999999999999
  7
HZTXT
 72
     1
 11
371.014482363881
 21
238.7867455137962
 31
0.0
100
AcDbText
1001
CDA_BG_MXB_T
1070
    12
1070
     4
1000
11
1000
1EF9
  0
TEXT
  5
303
330
70
100
AcDbEntity
  8
6文字层
100
AcDbText
 10
419.9780402050092
 20
238.5795743994048
 30
0.0
 40
3.0
  1
-
 41
0.6999999999999999
  7
HZTXT
 72
     4
 11
421.2780402050092
 21
239.8652886851191
 31
0.0
100
AcDbText
  0
TEXT
  5
304
330
70
100
AcDbEntity
  8
6文字层
100
AcDbText
 10
313.3858451826071
 20
237.1373449491293
 30
0.0
 40
2.0
  1
CLIP
 41
0.6999999880790711
  7
HZTXT
100
AcDbText
1001
CDA_SML_T
1000
name
1000
13
  0
TEXT
  5
305
330
70
100
AcDbEntity
  8
6文字层
100
AcDbText
 10
433.4113635931608
 20
238.5513378828155
 30
0.0
 40
3.0
  1
客供图
 41
0.6999999880790711
  7
HZ
 72
     1
 11
436.4704186591755
 21
238.5513378828155
 31
0.0
100
AcDbText
1001
CDA_BG_MXB_T
1000

  0
TEXT
  5
306
330
70
100
AcDbEntity
  8
6文字层
100
AcDbText
 10
387.9538603941655
 20
238.2474359695066
 30
0.0
 40
3.5
  1
组合件
 41
0.7
  7
HZ
 72
     1
 11
391.6385060634568
 21
238.2474359695066
 31
0.0
100
AcDbText
1001
CDA_SML_T
1000

  0
LINE
  5
307
330
70
100
AcDbEntity
  8
1.轮廓实线层
100
AcDbLine
 10
446.1650301377233
 20
284.1020859616915
 30
0.0
 11
266.2560628883368
 21
284.1020859616915
 31
0.0
  0
TEXT
  5
308
330
70
100
AcDbEntity
  8
6文字层
100
AcDbText
 10
370.3802158700619
 20
254.3837599132171
 30
0.0
 40
3.0
  1
1
 41
0.6999999999999999
  7
HZTXT
 72
     1
 11
371.2302158700619
 21
254.3837599132171
 31
0.0
100
AcDbText
1001
CDA_SML_T
1000
scal
1000
13
  0
TEXT
  5
309
330
70
100
AcDbEntity
  8
6文字层
 62
     3
100
AcDbText
 10
419.2463494695472
 20
254.1146140223304
 30
0.0
 40
3.0
  1
20
 41
0.6999999999999999
  7
HZTXT
 72
     4
 11
421.2463494695472
 21
255.6146140223304
 31
0.0
100
AcDbText
  0
TEXT
  5
30A
330
70
100
AcDbEntity
  8
6文字层
100
AcDbText
 10
379.3885060634726
 20
254.2565072238799
 30
0.0
 40
3.0
  1
Q235B/S30408
 41
0.7
  7
HZ
 72
     1
 11
391.6385060634726
 21
254.2565072238799
 31
0.0
100
AcDbText
1001
CDA_SML_T
1000

  0
TEXT
  5
30B
330
70
100
AcDbEntity
  8
6文字层
 62
     3
100
AcDbText
 10
313.0938527481717
 20
255.9944658232857
 30
0.0
 40
3.5
  1
保温支撑圈
 41
0.7
  7
HZTXT
100
AcDbText
1001
CDA_SML_T
1000
name
1000
13
  0
TEXT
  5
30C
330
70
100
AcDbEntity
  8
2
 48
200.0
100
AcDbText
 10
313.1188719052348
 20
253.1088454415226
 30
0.0
 40
2.0
  1
INSULATION SUPPORT RING
 41
0.7
  7
HZTXT
100
AcDbText
1001
CDA_SML_T
1000
name
1000
13
  0
TEXT
  5
30D
330
70
100
AcDbEntity
  8
6文字层
100
AcDbText
 10
329.8797994197316
 20
256.0031726605007
 30
0.0
 40
3.0
  1
Ⅳ %%C1632-64x6-6
 41
0.6999999999999999
  7
HZTXT
100
AcDbText
1001
CDA_SML_T
1000
name
1000
13
  0
TEXT
  5
30E
330
70
100
AcDbEntity
  8
6文字层
 62
     3
100
AcDbText
 10
283.5819977719328
 20
254.6054259535417
 30
0.0
 40
3.0
  1
NCY-ST-006-4
 41
0.7
  7
HZTXT
 72
     1
 11
296.4319977719329
 21
254.6054259535417
 31
0.0
100
AcDbText
1001
CDA_SML_T
1000
name
1000
13
  0
TEXT
  5
30F
330
70
100
AcDbEntity
  8
6文字层
 62
     3
100
AcDbText
 10
313.608858189226
 20
248.1451428035494
 30
0.0
 40
3.5
  1
加强圈
 41
0.7
  7
HZTXT
100
AcDbText
1001
CDA_SML_T
1000
name
1000
13
  0
TEXT
  5
310
330
70
100
AcDbEntity
  8
2
 48
200.0
100
AcDbText
 10
313.6338773462854
 20
245.2595223617886
 30
0.0
 40
2.0
  1
REINFORCING PAD
 41
0.7
  7
HZTXT
100
AcDbText
1001
CDA_SML_T
1000
name
1000
13
  0
TEXT
  5
311
330
70
100
AcDbEntity
  8
6文字层
 62
     3
100
AcDbText
 10
429.8571815454237
 20
256.5139877876443
 30
0.0
 40
3.0
  1
保温圈上开孔
 41
0.6999999999999999
  7
HZTXT
 72
     4
 11
436.1075752462111
 21
258.0376098348884
 31
0.0
100
AcDbText
  0
TEXT
  5
312
330
70
100
AcDbEntity
  8
6文字层
 62
     3
100
AcDbText
 10
427.6697799706205
 20
252.8478920223665
 30
0.0
 40
3.0
  1
参照NCY-ST-006-2
 41
0.4
  7
HZTXT
 72
     4
 11
436.1075752462111
 21
254.3478920223665
 31
0.0
100
AcDbText
  0
TEXT
  5
313
330
70
100
AcDbEntity
  8
6文字层
100
AcDbText
 10
313.2855924292999
 20
215.9356901043657
 30
0.0
 40
3.5
  1
内部预焊件
 41
0.7
  7
HZTXT
100
AcDbText
1001
CDA_SML_T
1000
name
1000
13
  0
TEXT
  5
314
330
70
100
AcDbEntity
  8
6文字层
 62
     3
100
AcDbText
 10
370.1644823638911
 20
214.7867455737805
 30
0.0
 40
3.0
  1
1
 41
0.6999999999999999
  7
HZTXT
 72
     1
 11
371.0144823638911
 21
214.7867455737805
 31
0.0
100
AcDbText
1001
CDA_BG_MXB_T
1070
    12
1070
     4
1000
11
1000
1EF9
  0
TEXT
  5
315
330
70
100
AcDbEntity
  8
6文字层
100
AcDbText
 10
419.9780402050193
 20
214.5795744593892
 30
0.0
 40
3.0
  1
-
 41
0.6999999999999999
  7
HZTXT
 72
     4
 11
421.2780402050193
 21
215.8652887451035
 31
0.0
100
AcDbText
  0
TEXT
  5
316
330
70
100
AcDbEntity
  8
6文字层
100
AcDbText
 10
313.3858451826172
 20
213.1373450091137
 30
0.0
 40
2.0
  1
CLIP
 41
0.6999999880790711
  7
HZTXT
100
AcDbText
1001
CDA_SML_T
1000
name
1000
13
  0
TEXT
  5
317
330
70
100
AcDbEntity
  8
6文字层
100
AcDbText
 10
433.4113635931709
 20
214.5513379427998
 30
0.0
 40
3.0
  1
客供图
 41
0.6999999880790711
  7
HZ
 72
     1
 11
436.4704186591857
 21
214.5513379427998
 31
0.0
100
AcDbText
1001
CDA_BG_MXB_T
1000

  0
TEXT
  5
318
330
70
100
AcDbEntity
  8
6文字层
100
AcDbText
 10
387.9538603941756
 20
214.2474360294909
 30
0.0
 40
3.5
  1
组合件
 41
0.7
  7
HZ
 72
     1
 11
391.6385060634669
 21
214.2474360294909
 31
0.0
100
AcDbText
1001
CDA_SML_T
1000

  0
TEXT
  5
319
330
70
100
AcDbEntity
  8
6文字层
100
AcDbText
 10
313.2855924292894
 20
232.3064325637052
 30
0.0
 40
3.5
  1
内件2
 41
0.7
  7
HZTXT
100
AcDbText
1001
CDA_SML_T
1000
name
1000
13
  0
TEXT
  5
31A
330
70
100
AcDbEntity
  8
6文字层
 62
     3
100
AcDbText
 10
370.1644823638807
 20
230.7958168281539
 30
0.0
 40
3.0
  1
1
 41
0.6999999999999999
  7
HZTXT
 72
     1
 11
371.0144823638807
 21
230.7958168281539
 31
0.0
100
AcDbText
1001
CDA_BG_MXB_T
1070
    12
1070
     4
1000
11
1000
1EF9
  0
TEXT
  5
31B
330
70
100
AcDbEntity
  8
6文字层
100
AcDbText
 10
419.9780402050088
 20
230.5886457137626
 30
0.0
 40
3.0
  1
-
 41
0.6999999999999999
  7
HZTXT
 72
     4
 11
421.2780402050088
 21
231.8743599994768
 31
0.0
100
AcDbText
  0
TEXT
  5
31C
330
70
100
AcDbEntity
  8
6文字层
100
AcDbText
 10
313.3858451826068
 20
229.146416263487
 30
0.0
 40
2.0
  1
INTERNAL PARTS2
 41
0.6999999880790711
  7
HZTXT
100
AcDbText
1001
CDA_SML_T
1000
name
1000
13
  0
TEXT
  5
31D
330
70
100
AcDbEntity
  8
6文字层
100
AcDbText
 10
433.4034435835934
 20
230.5604091971732
 30
0.0
 40
3.0
  1
客供图
 41
0.6999999880790711
  7
HZ
 72
     1
 11
436.4624986496083
 21
230.5604091971732
 31
0.0
100
AcDbText
1001
CDA_BG_MXB_T
1000

  0
TEXT
  5
31E
330
70
100
AcDbEntity
  8
6文字层
100
AcDbText
 10
387.9538603941652
 20
230.2565072838629
 30
0.0
 40
3.5
  1
组合件
 41
0.7
  7
HZ
 72
     1
 11
391.6385060634565
 21
230.2565072838629
 31
0.0
100
AcDbText
1001
CDA_SML_T
1000

  0
LINE
  5
3CC
330
70
100
AcDbEntity
  8
1轮廓实线层
100
AcDbLine
 10
266.2560628883404
 20
158.1020862015443
 30
0.0
 11
446.1650301997763
 21
158.1020862015443
 31
0.0
  0
LINE
  5
47C
330
70
100
AcDbEntity
  8
Cont
100
AcDbLine
 10
493.652731729665
 20
158.1020862015516
 30
0.0
 11
673.6588444651597
 21
158.1020862015443
 31
0.0
  0
TEXT
  5
47D
330
70
100
AcDbEntity
  8
6文字层
100
AcDbText
 10
556.5342771231853
 20
212.0499948048491
 30
0.0
 40
3.0
  1
M56×5.5 L=2785
 41
0.6999999999999999
  7
HZTXT
100
AcDbText
1001
CDA_SML_T
1000
name
1000
13
  0
TEXT
  5
47E
330
70
100
AcDbEntity
  8
6文字层
 62
     3
100
AcDbText
 10
596.6511610794683
 20
210.2866525098944
 30
0.0
 40
3.0
  1
16
 41
0.6999999999999999
  7
HZTXT
 72
     1
 11
598.8011610794683
 21
210.2866525098944
 31
0.0
100
AcDbText
1001
CDA_BG_MXB_T
1070
    12
1070
     4
1000
11
1000
1EF9
  0
TEXT
  5
47F
330
70
100
AcDbEntity
  8
6文字层
 62
     3
100
AcDbText
 10
540.4071310454246
 20
212.0919967304871
 30
0.0
 40
3.5
  1
地脚螺栓
 41
0.7
  7
HZTXT
100
AcDbText
1001
CDA_SML_T
1000
name
1000
13
  0
TEXT
  5
480
330
70
100
AcDbEntity
  8
2
 48
200.0
100
AcDbText
 10
540.432150202484
 20
209.2063762887264
 30
0.0
 40
2.0
  1
BOLT
 41
0.7
  7
HZTXT
100
AcDbText
1001
CDA_SML_T
1000
name
1000
13
  0
TEXT
  5
481
330
70
100
AcDbEntity
  8
6文字层
 62
     3
100
AcDbText
 10
644.4245431395231
 20
210.1170222669525
 30
0.0
 40
3.0
  1
861.6
 41
0.65
  7
HZTXT
 72
     4
 11
648.6031145680945
 21
211.6170222669525
 31
0.0
100
AcDbText
  0
TEXT
  5
482
330
70
100
AcDbEntity
  8
2细线层
 62
     3
100
AcDbText
 10
556.6449901988498
 20
220.0377468659699
 30
0.0
 40
3.0
  1
M56×5.5
 41
0.6999999999999999
  7
HZTXT
100
AcDbText
1001
CDA_SML_T
1000
name
1000
13
  0
TEXT
  5
483
330
70
100
AcDbEntity
  8
2细线层
 62
     3
100
AcDbText
 10
540.3645213662648
 20
219.9088819459703
 30
0.0
 40
3.5
  1
螺母
 41
0.7
  7
HZTXT
100
AcDbText
1001
CDA_SML_T
1000
name
1000
13
  0
TEXT
  5
484
330
70
100
AcDbEntity
  8
2
 48
200.0
100
AcDbText
 10
540.3645213662648
 20
217.3117098406347
 30
0.0
 40
2.0
  1
NUT
 41
0.7
  7
HZTXT
100
AcDbText
1001
CDA_SML_T
1000
name
1000
13
  0
TEXT
  5
485
330
70
100
AcDbEntity
  8
6文字层
100
AcDbText
 10
596.8934405090634
 20
218.170527702051
 30
0.0
 40
3.0
  1
64
 41
0.6999999999999999
  7
HZTXT
 72
     1
 11
598.9934405090634
 21
218.170527702051
 31
0.0
100
AcDbText
1001
CDA_BG_MXB_T
1070
    12
1070
     4
1000
11
1000
1EF9
  0
TEXT
  5
486
330
70
100
AcDbEntity
  8
6文字层
100
AcDbText
 10
645.197954867871
 20
194.444721501221
 30
0.0
 40
3.0
  1
80.7
 41
0.6999999880790711
  7
HZ
 72
     1
 11
648.6979548082663
 21
194.444721501221
 31
0.0
100
AcDbText
1001
CDA_BG_MXB_T
1000

  0
TEXT
  5
487
330
70
100
AcDbEntity
  8
6文字层
100
AcDbText
 10
613.2277482600171
 20
194.3101467251081
 30
0.0
 40
3.0
  1
Q235B
 41
0.7
  7
HZ
 72
     1
 11
618.3777482600171
 21
194.3101467251081
 31
0.0
100
AcDbText
1001
CDA_SML_T
1000

  0
TEXT
  5
488
330
70
100
AcDbEntity
  8
6文字层
100
AcDbText
 10
540.6244296321029
 20
195.6846243009267
 30
0.0
 40
3.5
  1
锚板
 41
0.6999999880790711
  7
HZ
100
AcDbText
1001
CDA_SML_T
1000

  0
TEXT
  5
489
330
70
100
AcDbEntity
  8
2
 48
200.0
100
AcDbText
 10
540.3194070623294
 20
193.019823618928
 30
0.0
 40
2.0
  1
ANCHOR PLATE
 41
0.7
  7
HZTXT
100
AcDbText
1001
CDA_SML_T
1000
name
1000
13
  0
TEXT
  5
48A
330
70
100
AcDbEntity
  8
6文字层
100
AcDbText
 10
597.7627022211339
 20
194.3861681977423
 30
0.0
 40
3.0
  1
1
 41
0.6999999999999999
  7
HZTXT
 72
     1
 11
598.612702221134
 21
194.3861681977423
 31
0.0
100
AcDbText
1001
CDA_SML_T
1000
scal
1000
13
  0
LINE
  5
48B
330
70
100
AcDbEntity
  8
1轮廓实线层
100
AcDbLine
 10
493.6420478137597
 20
192.1042226927447
 30
0.0
 11
673.5510151251956
 21
192.1042226927447
 31
0.0
  0
TEXT
  5
48C
330
70
100
AcDbEntity
  8
6文字层
 62
     3
100
AcDbText
 10
498.0743050668543
 20
184.6647874029795
 30
0.0
 40
3.5
  1
件 号
 41
0.7
  7
HZTXT
100
AcDbText
  0
TEXT
  5
48D
330
70
100
AcDbEntity
  8
6文字层
 62
     3
100
AcDbText
 10
495.7248468158275
 20
179.8643920429376
 30
0.0
 40
2.0
  1
PARTS .NO.
 41
0.7
  7
HZTXT
 72
     1
 11
501.4109360546727
 21
179.8643920429376
 31
0.0
100
AcDbText
  0
LINE
  5
48E
330
70
100
AcDbEntity
  8
1轮廓实线层
100
AcDbLine
 10
653.6463550228082
 20
184.6042226927447
 30
0.0
 11
633.6463550228081
 21
184.6042226927447
 31
0.0
  0
TEXT
  5
48F
330
70
100
AcDbEntity
  8
6文字层
 62
     3
100
AcDbText
 10
641.9645704820441
 20
179.807174121458
 30
0.0
 40
2.0
  1
MASS（kg）
 41
0.7
  7
HZTXT
100
AcDbText
  0
TEXT
  5
490
330
70
100
AcDbEntity
  8
6文字层
 62
     3
100
AcDbText
 10
513.0679751399593
 20
179.8643920429376
 30
0.0
 40
2.0
  1
DWG NO. OR STD. NO.
 41
0.7
  7
HZTXT
100
AcDbText
  0
TEXT
  5
491
330
70
100
AcDbEntity
  8
6文字层
 62
     3
100
AcDbText
 10
516.0697961511478
 20
184.6372283478767
 30
0.0
 40
3.5
  1
图号或标准号
 41
0.7
  7
HZTXT
100
AcDbText
  0
TEXT
  5
492
330
70
100
AcDbEntity
  8
6文字层
 62
     3
100
AcDbText
 10
558.7015945401662
 20
179.8643920429376
 30
0.0
 40
2.0
  1
PARTS. NAME.
 41
0.7
  7
HZTXT
100
AcDbText
  0
TEXT
  5
493
330
70
100
AcDbEntity
  8
6文字层
 62
     3
100
AcDbText
 10
560.936848458733
 20
184.6647874029795
 30
0.0
 40
3.5
  1
名   称
 41
0.7
  7
HZTXT
100
AcDbText
  0
LINE
  5
494
330
70
100
AcDbEntity
  8
1轮廓实线层
100
AcDbLine
 10
603.6463550228154
 20
178.1042226527561
 30
0.0
 11
603.6463550228145
 21
240.1042225728661
 31
0.0
  0
TEXT
  5
495
330
70
100
AcDbEntity
  8
6文字层
 62
     3
100
AcDbText
 10
596.5339950582865
 20
180.432570085125
 30
0.0
 40
2.0
  1
QTY.
 41
0.7
  7
HZTXT
100
AcDbText
  0
TEXT
  5
496
330
70
100
AcDbEntity
  8
6文字层
 62
     3
100
AcDbText
 10
596.1424419693803
 20
184.6647874029795
 30
0.0
 40
3.5
  1
数量
 41
0.7
  7
HZTXT
100
AcDbText
  0
TEXT
  5
497
330
70
100
AcDbEntity
  8
6文字层
 62
     3
100
AcDbText
 10
616.5813655611282
 20
180.432570085125
 30
0.0
 40
2.0
  1
MAT'L
 41
0.7
  7
HZTXT
100
AcDbText
  0
TEXT
  5
498
330
70
100
AcDbEntity
  8
6文字层
 62
     3
100
AcDbText
 10
615.1984129306083
 20
184.6647874029795
 30
0.0
 40
3.5
  1
材  料
 41
0.7
  7
HZTXT
100
AcDbText
  0
TEXT
  5
499
330
70
100
AcDbEntity
  8
6文字层
 62
     3
100
AcDbText
 10
636.1284344598106
 20
178.9787638471089
 30
0.0
 40
3.5
  1
质量
 41
0.7
  7
HZTXT
100
AcDbText
  0
TEXT
  5
49A
330
70
100
AcDbEntity
  8
6文字层
 62
     3
100
AcDbText
 10
635.5340345581216
 20
185.5526047079393
 30
0.0
 40
2.0
  1
SINGLE
 41
0.7
  7
HZTXT
100
AcDbText
  0
TEXT
  5
49B
330
70
100
AcDbEntity
  8
6文字层
 62
     3
100
AcDbText
 10
637.4290293011735
 20
188.1277307477639
 30
0.0
 40
3.5
  1
单
 41
0.7
  7
HZTXT
100
AcDbText
  0
TEXT
  5
49C
330
70
100
AcDbEntity
  8
6文字层
 62
     3
100
AcDbText
 10
647.2636385527594
 20
188.329949453785
 30
0.0
 40
3.5
  1
总
 41
0.7
  7
HZTXT
100
AcDbText
  0
TEXT
  5
49D
330
70
100
AcDbEntity
  8
6文字层
 62
     3
100
AcDbText
 10
646.2796547344342
 20
185.5526047079393
 30
0.0
 40
2.0
  1
TOTAL
 41
0.7
  7
HZTXT
100
AcDbText
  0
LINE
  5
49E
330
70
100
AcDbEntity
  8
1轮廓实线层
100
AcDbLine
 10
508.6463550227972
 20
240.1042225728661
 30
0.0
 11
508.6463550227972
 21
178.1042226527561
 31
0.0
  0
LINE
  5
49F
330
70
100
AcDbEntity
  8
1轮廓实线层
100
AcDbLine
 10
538.64635502283
 20
178.1042226527561
 30
0.0
 11
538.64635502283
 21
240.1042225728661
 31
0.0
  0
LINE
  5
4A0
330
70
100
AcDbEntity
  8
1轮廓实线层
100
AcDbLine
 10
593.6463550228263
 20
178.1042226527561
 30
0.0
 11
593.6463550227999
 21
240.1042225728661
 31
0.0
  0
LINE
  5
4A1
330
70
100
AcDbEntity
  8
1轮廓实线层
100
AcDbLine
 10
633.6463550228154
 20
178.1042226527561
 30
0.0
 11
633.6463550228154
 21
240.1042225728661
 31
0.0
  0
LINE
  5
4A2
330
70
100
AcDbEntity
  8
1轮廓实线层
100
AcDbLine
 10
653.6463550227827
 20
178.1042226527561
 30
0.0
 11
653.6463550227827
 21
240.1042225728661
 31
0.0
  0
LINE
  5
4A3
330
70
100
AcDbEntity
  8
2细线层
100
AcDbLine
 10
673.5510151251956
 20
200.1042226727504
 30
0.0
 11
493.6420478448426
 21
200.1042226727504
 31
0.0
  0
LINE
  5
4A4
330
70
100
AcDbEntity
  8
2细线层
100
AcDbLine
 10
673.5510151251956
 20
208.1042226527561
 30
0.0
 11
493.642047875809
 21
208.1042226527561
 31
0.0
  0
TEXT
  5
4A5
330
70
100
AcDbEntity
  8
6文字层
 62
     3
100
AcDbText
 10
659.9533995980261
 20
184.9026267565341
 30
0.0
 40
3.5
  1
备 注
 41
0.7
  7
HZTXT
 72
     1
 11
662.9724940862152
 21
184.9026267565341
 31
0.0
100
AcDbText
  0
TEXT
  5
4A6
330
70
100
AcDbEntity
  8
6文字层
 62
     3
100
AcDbText
 10
659.1166787669581
 20
180.4022561064621
 30
0.0
 40
2.0
  1
REMARKS
 41
0.7
  7
HZTXT
100
AcDbText
  0
LINE
  5
4A7
330
70
100
AcDbEntity
  8
2细线层
100
AcDbLine
 10
673.5492106983338
 20
216.1042226327909
 30
0.0
 11
493.6402434799138
 21
216.1042226327618
 31
0.0
  0
LINE
  5
4A8
330
70
100
AcDbEntity
  8
2细线层
100
AcDbLine
 10
673.5492106983338
 20
232.1042225928313
 30
0.0
 11
493.6402435419632
 21
232.1042225928313
 31
0.0
  0
LINE
  5
4A9
330
70
100
AcDbEntity
  8
2细线层
100
AcDbLine
 10
673.5492106983338
 20
224.1042226127965
 30
0.0
 11
493.6402435109966
 21
224.1042226127965
 31
0.0
  0
LINE
  5
4AA
330
70
100
AcDbEntity
  8
1.轮廓实线层
100
AcDbLine
 10
673.5492106983338
 20
240.1042225728661
 30
0.0
 11
493.6402435729296
 21
240.1042225728661
 31
0.0
  0
LINE
  5
4AB
330
70
100
AcDbEntity
  8
1轮廓实线层
100
AcDbLine
 10
643.6463550228081
 20
184.6042226927447
 30
0.0
 11
643.6463550228081
 21
240.1042225728661
 31
0.0
  0
TEXT
  5
4AC
330
70
100
AcDbEntity
  8
6文字层
 62
     3
100
AcDbText
 10
498.1891017306124
 20
202.6635487603844
 30
0.0
 40
3.5
  1
-2
 41
0.7
  7
HZTXT
100
AcDbText
1001
CDA_BG_MXB_T
1070
     2
1070
     1
1000
11
1000
1F07
  0
TEXT
  5
4AD
330
70
100
AcDbEntity
  8
6文字层
 62
     3
100
AcDbText
 10
498.1891016995295
 20
194.6635487803787
 30
0.0
 40
3.5
  1
-1
 41
0.7
  7
HZTXT
100
AcDbText
1001
CDA_BG_MXB_T
1070
     2
1070
     1
1000
11
1000
1F07
  0
TEXT
  5
4AE
330
70
100
AcDbEntity
  8
6文字层
 62
     3
100
AcDbText
 10
498.1872973037507
 20
210.6635487603844
 30
0.0
 40
3.5
  1
-3
 41
0.7
  7
HZTXT
100
AcDbText
1001
CDA_BG_MXB_T
1070
     2
1070
     1
1000
11
1000
1F07
  0
TEXT
  5
4AF
330
70
100
AcDbEntity
  8
6文字层
 62
     3
100
AcDbText
 10
498.1872973037507
 20
226.6635487603844
 30
0.0
 40
3.5
  1
-5
 41
0.7
  7
HZTXT
100
AcDbText
1001
CDA_BG_MXB_T
1070
     2
1070
     1
1000
11
1000
1F07
  0
TEXT
  5
4B0
330
70
100
AcDbEntity
  8
6文字层
 62
     3
100
AcDbText
 10
498.1872973037507
 20
218.7822026188942
 30
0.0
 40
3.5
  1
-4
 41
0.7
  7
HZTXT
100
AcDbText
1001
CDA_BG_MXB_T
1070
     2
1070
     1
1000
11
1000
1F07
  0
TEXT
  5
4B1
330
70
100
AcDbEntity
  8
6文字层
 62
     3
100
AcDbText
 10
498.1872972726677
 20
234.6635486804653
 30
0.0
 40
3.5
  1
-6
 41
0.7
  7
HZTXT
100
AcDbText
1001
CDA_BG_MXB_T
1070
     2
1070
     1
1000
11
1000
1F07
  0
TEXT
  5
4B2
330
70
100
AcDbEntity
  8
6文字层
100
AcDbText
 10
613.0234375837232
 20
210.5229484112508
 30
0.0
 40
3.0
  1
Q355B
 41
0.6999999999999999
  7
HZTXT
 72
     4
 11
618.1734375837232
 21
211.8800912683937
 31
0.0
100
AcDbText
  0
TEXT
  5
4B3
330
70
100
AcDbEntity
  8
6文字层
100
AcDbText
 10
612.8936918112218
 20
218.1413541648644
 30
0.0
 40
3.0
  1
Q355B
 41
0.6999999999999999
  7
HZTXT
 72
     1
 11
618.0436918112218
 21
218.1413541648644
 31
0.0
100
AcDbText
1001
CDA_SML_T
1000
cale
1000
13
  0
TEXT
  5
4B4
330
70
100
AcDbEntity
  8
6文字层
100
AcDbText
 10
643.9979548883068
 20
218.4447214412671
 30
0.0
 40
3.0
  1
102.4
 41
0.6999999880790711
  7
HZ
 72
     1
 11
648.6979548082663
 21
218.4447214412671
 31
0.0
100
AcDbText
1001
CDA_BG_MXB_T
1000

  0
TEXT
  5
4B5
330
70
100
AcDbEntity
  8
6文字层
100
AcDbText
 10
636.0479548533955
 20
218.4447214412671
 30
0.0
 40
3.0
  1
1.6
 41
0.6999999880790711
  7
HZ
 72
     1
 11
638.6979548082663
 21
218.4447214412671
 31
0.0
100
AcDbText
1001
CDA_BG_MXB_T
1000

  0
TEXT
  5
4B6
330
70
100
AcDbEntity
  8
6文字层
100
AcDbText
 10
540.6730314616079
 20
203.7454392511213
 30
0.0
 40
3.5
  1
基础环板
 41
0.7
  7
HZTXT
100
AcDbText
1001
CDA_SML_T
1000
name
1000
13
  0
TEXT
  5
4B7
330
70
100
AcDbEntity
  8
6文字层
100
AcDbText
 10
540.6730314616079
 20
201.1482671457857
 30
0.0
 40
2.0
  1
PLATE
 41
0.7
  7
HZTXT
100
AcDbText
1001
CDA_SML_T
1000
name
1000
13
  0
TEXT
  5
4B8
330
70
100
AcDbEntity
  8
6文字层
100
AcDbText
 10
597.9261041801121
 20
202.817877410881
 30
0.0
 40
3.0
  1
1
 41
0.6999999880790711
  7
HZ
 72
     1
 11
598.7761041656368
 21
202.817877410881
 31
0.0
100
AcDbText
1001
CDA_BG_MXB_T
1000

  0
TEXT
  5
4B9
330
70
100
AcDbEntity
  8
6文字层
100
AcDbText
 10
613.0849203305539
 20
202.5840633517375
 30
0.0
 40
3.0
  1
Q235B
 41
0.6999999999999999
  7
HZTXT
 72
     4
 11
618.2349203305538
 21
203.9412062088804
 31
0.0
100
AcDbText
  0
LINE
  5
4BA
330
70
100
AcDbEntity
  8
1轮廓实线层
100
AcDbLine
 10
493.6420478137597
 20
178.1042226527561
 30
0.0
 11
673.5510151251956
 21
178.1042226527561
 31
0.0
  0
TEXT
  5
4BB
330
70
100
AcDbEntity
  8
6文字层
100
AcDbText
 10
645.197954867871
 20
202.4447214812267
 30
0.0
 40
3.0
  1
53.7
 41
0.6999999880790711
  7
HZ
 72
     1
 11
648.6979548082663
 21
202.4447214812267
 31
0.0
100
AcDbText
1001
CDA_BG_MXB_T
1000

  0
TEXT
  5
4BC
330
70
100
AcDbEntity
  8
6文字层
 62
     3
100
AcDbText
 10
634.4245431395303
 20
210.1170222669525
 30
0.0
 40
3.0
  1
53.85
 41
0.65
  7
HZTXT
 72
     4
 11
638.6031145681017
 21
211.6170222669525
 31
0.0
100
AcDbText
  0
TEXT
  5
4BD
330
70
100
AcDbEntity
  8
6文字层
100
AcDbText
 10
557.6166594766846
 20
204.1770982769181
 30
0.0
 40
3.0
  1
δ=8
 41
0.6999999999999999
  7
HZTXT
100
AcDbText
1001
CDA_SML_T
1000

  0
TEXT
  5
4BE
330
70
100
AcDbEntity
  8
6文字层
100
AcDbText
 10
557.6166594766882
 20
196.1770982969124
 30
0.0
 40
3.0
  1
δ=12
 41
0.6999999999999999
  7
HZTXT
100
AcDbText
1001
CDA_SML_T
1000

  0
TEXT
  5
4BF
330
70
100
AcDbEntity
  8
2细线层
 62
     3
100
AcDbText
 10
520.4893338741872
 20
210.622103451477
 30
0.0
 40
3.0
  1
见本图
 41
0.6999999880790711
  7
HZTXT
 72
     1
 11
523.5401212238075
 21
210.622103451477
 31
0.0
100
AcDbText
1001
CDA_BG_MXB_T
1070
     2
1070
     2
1000
11
  0
TEXT
  5
4C0
330
70
100
AcDbEntity
  8
2细线层
 62
     3
100
AcDbText
 10
510.2401214503052
 20
218.6221034315117
 30
0.0
 40
3.0
  1
GB/T6170-2015
 41
0.6999999880790711
  7
HZTXT
 72
     1
 11
523.5401212238075
 21
218.6221034315117
 31
0.0
100
AcDbText
1001
CDA_BG_MXB_T
1070
     2
1070
     2
1000
11
  0
TEXT
  5
4C1
330
70
100
AcDbEntity
  8
6文字层
100
AcDbText
 10
594.3906832818766
 20
172.4315030485327
 30
0.0
 40
3.0
  1
1147
 41
0.6999999880790711
  7
HZ
100
AcDbText
1001
CDA_BG_MXB_T
1000

  0
TEXT
  5
4C2
330
70
100
AcDbEntity
  8
6文字层
100
AcDbText
 10
501.4932011634645
 20
172.2740164454144
 30
0.0
 40
3.0
  1
14
 41
0.6999999880790711
  7
HZ
 72
     1
 11
503.6932011259986
 21
172.2740164454144
 31
0.0
100
AcDbText
1001
CDA_BG_MXB_T
1000

  0
TEXT
  5
4C3
330
70
100
AcDbEntity
  8
6文字层
100
AcDbText
 10
592.3545484655542
 20
164.3500939643918
 30
0.0
 40
3.499649999999999
  1
质量
 41
0.8
  7
HZ
100
AcDbText
  0
TEXT
  5
4C4
330
70
100
AcDbEntity
  8
6文字层
100
AcDbText
 10
498.9510891816671
 20
159.9965452468304
 30
0.0
 40
1.999799999999999
  1
PART NO.
 41
0.8
  7
HZ
100
AcDbText
  0
TEXT
  5
4C5
330
70
100
AcDbEntity
  8
6文字层
100
AcDbText
 10
499.813896586048
 20
164.3500939643918
 30
0.0
 40
3.499649999999999
  1
件 号
 41
0.8
  7
HZ
100
AcDbText
  0
TEXT
  5
4C6
330
70
100
AcDbEntity
  8
6文字层
100
AcDbText
 10
529.1046123633414
 20
159.9965452468304
 30
0.0
 40
1.999799999999999
  1
PARTS. NAME.
 41
0.8
  7
HZ
100
AcDbText
  0
TEXT
  5
4C7
330
70
100
AcDbEntity
  8
6文字层
100
AcDbText
 10
529.2498296566255
 20
164.3500939643918
 30
0.0
 40
3.499649999999999
  1
名   称
 41
0.8
  7
HZ
100
AcDbText
  0
TEXT
  5
4C8
330
70
100
AcDbEntity
  8
6文字层
100
AcDbText
 10
569.3085623432335
 20
164.3500939643918
 30
0.0
 40
3.499649999999999
  1
材 料
 41
0.8
  7
HZ
100
AcDbText
  0
TEXT
  5
4C9
330
70
100
AcDbEntity
  8
6文字层
100
AcDbText
 10
569.8496290352768
 20
159.9965452468304
 30
0.0
 40
1.999799999999999
  1
MAT'L
 41
0.8
  7
HZ
100
AcDbText
  0
TEXT
  5
4CA
330
70
100
AcDbEntity
  8
6文字层
 48
0.03
100
AcDbText
 10
631.8079751359537
 20
159.9965452468304
 30
0.0
 40
1.999799999999999
  1
DWG. NO.
 41
0.8
  7
HZ
100
AcDbText
  0
TEXT
  5
4CB
330
70
100
AcDbEntity
  8
6文字层
100
AcDbText
 10
630.8845360698169
 20
164.3500939643991
 30
0.0
 40
3.499649999999999
  1
所在图号
 41
0.8
  7
HZ
100
AcDbText
  0
TEXT
  5
4CC
330
70
100
AcDbEntity
  8
6文字层
100
AcDbText
 10
612.696856568421
 20
159.9965452468304
 30
0.0
 40
1.999799999999999
  1
SCALE
 41
0.8
  7
HZ
100
AcDbText
  0
TEXT
  5
4CD
330
70
100
AcDbEntity
  8
6文字层
100
AcDbText
 10
612.7418811359811
 20
164.3500939643918
 30
0.0
 40
3.499649999999999
  1
比 例
 41
0.8
  7
HZ
100
AcDbText
  0
TEXT
  5
4CE
330
70
100
AcDbEntity
  8
6文字层
100
AcDbText
 10
595.7986323039213
 20
159.9965452468304
 30
0.0
 40
1.999799999999999
  1
MASS
 41
0.8
  7
HZ
100
AcDbText
  0
TEXT
  5
4CF
330
70
100
AcDbEntity
  8
6文字层
100
AcDbText
 10
597.9693864455612
 20
164.3500939643918
 30
0.0
 40
2.9997
  1
(kg)
 41
0.8
  7
HZ
100
AcDbText
  0
TEXT
  5
4D0
330
70
100
AcDbEntity
  8
6文字层
100
AcDbText
 10
654.1530566749197
 20
160.0980635455189
 30
0.0
 40
1.999799999999999
  1
ASSY. DWG. NO.
 41
0.6
  7
HZ
100
AcDbText
  0
MTEXT
  5
4D1
330
70
100
AcDbEntity
  8
6文字层
100
AcDbMText
 10
656.2418405772541
 20
168.405851272174
 30
0.0
 40
3.499649999999999
 41
14.99849999999999
 46
0.0
 71
     1
 72
     5
  1
装配图号
  7
HZ
 73
     1
 44
1.0
  0
LINE
  5
4D2
330
70
100
AcDbEntity
  8
1轮廓实线层
100
AcDbLine
 10
588.6505532914225
 20
178.1042226527488
 30
0.0
 11
588.6505532914225
 21
158.1062226527492
 31
0.0
  0
LINE
  5
4D3
330
70
100
AcDbEntity
  8
1轮廓实线层
100
AcDbLine
 10
608.648553291422
 20
178.1042226527488
 30
0.0
 11
608.648553291422
 21
158.1062226527492
 31
0.0
  0
LINE
  5
4D4
330
70
100
AcDbEntity
  8
1轮廓实线层
100
AcDbLine
 10
558.6535532914195
 20
178.1042226527488
 30
0.0
 11
558.6535532914195
 21
158.1062226527492
 31
0.0
  0
LINE
  5
4D5
330
70
100
AcDbEntity
  8
1轮廓实线层
100
AcDbLine
 10
513.6580532914222
 20
178.1042226527561
 30
0.0
 11
513.6580532914222
 21
158.1062226527492
 31
0.0
  0
LINE
  5
4D6
330
70
100
AcDbEntity
  8
1轮廓实线层
100
AcDbLine
 10
623.6470532914236
 20
178.1042226527488
 30
0.0
 11
623.6470532914236
 21
158.1062226527492
 31
0.0
  0
LINE
  5
4D7
330
70
100
AcDbEntity
  8
1轮廓实线层
100
AcDbLine
 10
648.6445532914212
 20
178.1042226527488
 30
0.0
 11
648.6445532914212
 21
158.1062226527492
 31
0.0
  0
LINE
  5
4D8
330
70
100
AcDbEntity
  8
1轮廓实线层
100
AcDbLine
 10
493.6420478137597
 20
170.1070219979729
 30
0.0
 11
673.6420495088887
 21
170.1070219979729
 31
0.0
  0
TEXT
  5
4D9
330
70
100
AcDbEntity
  8
6文字层
100
AcDbText
 10
615.3335449036449
 20
172.8244285510172
 30
0.0
 40
3.0
  1
/
 41
0.6999999880790711
  7
HZ
100
AcDbText
1001
CDA_BG_MXB_T
1000

  0
TEXT
  5
4DA
330
70
100
AcDbEntity
  8
6文字层
100
AcDbText
 10
569.5505495849163
 20
173.7426136926506
 30
0.0
 40
3.5
  1
组合件
 41
0.7
  7
HZ
 72
     1
 11
573.2351952542075
 21
173.7426136926506
 31
0.0
100
AcDbText
1001
CDA_SML_T
1000

  0
TEXT
  5
4DB
330
70
100
AcDbEntity
  8
6文字层
100
AcDbText
 10
570.0018619208742
 20
171.1071317143496
 30
0.0
 40
2.0
  1
COMP.
 41
0.7
  7
HZ
 72
     1
 11
573.2351952542075
 21
171.1071317143496
 31
0.0
100
AcDbText
1001
CDA_SML_T
1000

  0
TEXT
  5
4DC
330
70
100
AcDbEntity
  8
6文字层
100
AcDbText
 10
515.6361279317106
 20
171.0930508260489
 30
0.0
 40
2.0
  1
BASE TEMPLATE COMPONENT
 41
0.6999999880790711
  7
HZ
100
AcDbText
1001
CDA_SML_T
1000

  0
TEXT
  5
4DD
330
70
100
AcDbEntity
  8
6文字层
100
AcDbText
 10
515.6361279317106
 20
173.6902229313846
 30
0.0
 40
3.5
  1
基础模板组件
 41
0.7
  7
HZ
100
AcDbText
1001
CDA_SML_T
1000

  0
TEXT
  5
4DE
330
70
100
AcDbEntity
  8
6文字层
100
AcDbText
 10
624.0573563273813
 20
172.6812257392189
 30
0.0
 40
3.0
  1
NCY24-S004-04
 41
0.6
  7
HZTXT
 72
     1
 11
635.8430706130957
 21
172.6812257392189
 31
0.0
100
AcDbText
1001
CDA_BG_MXB_T
1000

  0
TEXT
  5
4DF
330
70
100
AcDbEntity
  8
6文字层
100
AcDbText
 10
649.0977134702363
 20
172.6812257392189
 30
0.0
 40
3.0
  1
NCY24-S004-00
 41
0.6
  7
HZTXT
 72
     1
 11
660.8405706130934
 21
172.6812257392189
 31
0.0
100
AcDbText
1001
CDA_BG_MXB_T
1000

  0
LINE
  5
4E0
330
70
100
AcDbEntity
  8
Cont
100
AcDbLine
 10
493.6527317296631
 20
158.1020874451692
 30
0.0
 11
493.6415184600064
 21
240.1042225728661
 31
0.0
  0
TEXT
  5
4E1
330
70
100
AcDbEntity
  8
6文字层
100
AcDbText
 10
597.3594447942423
 20
226.3861681177941
 30
0.0
 40
3.0
  1
2
 41
0.6999999999999999
  7
HZTXT
 72
     1
 11
598.3594447942423
 21
226.3861681177941
 31
0.0
100
AcDbText
1001
CDA_SML_T
1000
scal
1000
13
  0
TEXT
  5
4E2
330
70
100
AcDbEntity
  8
2细线层
 62
     3
100
AcDbText
 10
540.6106667923495
 20
227.6874235662317
 30
0.0
 40
3.5
  1
支撑角钢Ⅰ
 41
0.7
  7
HZTXT
100
AcDbText
1001
CDA_SML_T
1000
name
1000
13
  0
TEXT
  5
4E3
330
70
100
AcDbEntity
  8
2细线层
 62
     3
100
AcDbText
 10
556.8911355629033
 20
227.8162884662807
 30
0.0
 40
3.0
  1
∠75×75×6 L=1790
 41
0.6999999999999999
  7
HZTXT
100
AcDbText
1001
CDA_SML_T
1000
name
1000
13
  0
TEXT
  5
4E4
330
70
100
AcDbEntity
  8
6文字层
100
AcDbText
 10
645.197954867871
 20
226.4447214212728
 30
0.0
 40
3.0
  1
24.8
 41
0.6999999880790711
  7
HZ
 72
     1
 11
648.6979548082663
 21
226.4447214212728
 31
0.0
100
AcDbText
1001
CDA_BG_MXB_T
1000

  0
TEXT
  5
4E5
330
70
100
AcDbEntity
  8
6文字层
100
AcDbText
 10
597.2775981148343
 20
234.5204530939623
 30
0.0
 40
3.0
  1
4
 41
0.6999999880790711
  7
HZ
 72
     1
 11
598.3275980969529
 21
234.5204530939623
 31
0.0
100
AcDbText
1001
CDA_BG_MXB_T
1000

  0
TEXT
  5
4E6
330
70
100
AcDbEntity
  8
6文字层
100
AcDbText
 10
540.6106666063033
 20
235.6874235262089
 30
0.0
 40
3.5
  1
支撑角钢Ⅱ
 41
0.7
  7
HZ
100
AcDbText
1001
CDA_SML_T
1000

  0
TEXT
  5
4E7
330
70
100
AcDbEntity
  8
6文字层
100
AcDbText
 10
540.6106666063033
 20
233.0902514208733
 30
0.0
 40
2.0
  1
ANGLE IRON
 41
0.6999999880790711
  7
HZ
100
AcDbText
1001
CDA_SML_T
1000

  0
TEXT
  5
4E8
330
70
100
AcDbEntity
  8
6文字层
100
AcDbText
 10
645.089351542324
 20
234.1170222070009
 30
0.0
 40
3.0
  1
23.6
 41
0.6999999999999999
  7
HZTXT
 72
     4
 11
648.589351542324
 21
235.6170222070009
 31
0.0
100
AcDbText
  0
TEXT
  5
4E9
330
70
100
AcDbEntity
  8
2细线层
 62
     3
100
AcDbText
 10
556.8911355629033
 20
235.816288446299
 30
0.0
 40
3.0
  1
∠75×75×6 L=857
 41
0.6999999999999999
  7
HZTXT
100
AcDbText
1001
CDA_SML_T
1000
name
1000
13
  0
TEXT
  5
4EA
330
70
100
AcDbEntity
  8
6文字层
100
AcDbText
 10
613.2277482600171
 20
226.3101466451599
 30
0.0
 40
3.0
  1
Q235B
 41
0.7
  7
HZ
 72
     1
 11
618.3777482600171
 21
226.3101466451599
 31
0.0
100
AcDbText
1001
CDA_SML_T
1000

  0
TEXT
  5
4EB
330
70
100
AcDbEntity
  8
6文字层
100
AcDbText
 10
613.0849203305539
 20
234.5840632717894
 30
0.0
 40
3.0
  1
Q235B
 41
0.6999999999999999
  7
HZTXT
 72
     4
 11
618.2349203305538
 21
235.9412061289322
 31
0.0
100
AcDbText
  0
TEXT
  5
4EC
330
70
100
AcDbEntity
  8
6文字层
100
AcDbText
 10
634.9979548712842
 20
226.4447214212728
 30
0.0
 40
3.0
  1
12.4
 41
0.6999999880790711
  7
HZ
 72
     1
 11
638.6979548082735
 21
226.4447214212728
 31
0.0
100
AcDbText
1001
CDA_BG_MXB_T
1000

  0
TEXT
  5
4ED
330
70
100
AcDbEntity
  8
6文字层
100
AcDbText
 10
636.1393515423312
 20
234.1170222070009
 30
0.0
 40
3.0
  1
5.9
 41
0.6999999999999999
  7
HZTXT
 72
     4
 11
638.5893515423313
 21
235.6170222070009
 31
0.0
100
AcDbText
  0
TEXT
  5
4EE
330
70
100
AcDbEntity
  8
2细线层
 62
     3
100
AcDbText
 10
511.2401214332753
 20
226.6221034114956
 30
0.0
 40
3.0
  1
GB/T706-2016
 41
0.6999999880790711
  7
HZTXT
 72
     1
 11
523.5401212238075
 21
226.6221034114956
 31
0.0
100
AcDbText
1001
CDA_BG_MXB_T
1070
     2
1070
     2
1000
11
  0
TEXT
  5
4EF
330
70
100
AcDbEntity
  8
2细线层
 62
     3
100
AcDbText
 10
511.2401214332753
 20
234.6221033915231
 30
0.0
 40
3.0
  1
GB/T706-2016
 41
0.6999999880790711
  7
HZTXT
 72
     1
 11
523.5401212238075
 21
234.6221033915231
 31
0.0
100
AcDbText
1001
CDA_BG_MXB_T
1070
     2
1070
     2
1000
11
  0
TEXT
  5
4F0
330
70
100
AcDbEntity
  8
6文字层
100
AcDbText
 10
540.6106666063033
 20
225.0902514408385
 30
0.0
 40
2.0
  1
ANGLE IRON
 41
0.6999999880790711
  7
HZ
100
AcDbText
1001
CDA_SML_T
1000

  0
LINE
  5
4F6
330
70
100
AcDbEntity
  8
Cont
100
AcDbLine
 10
673.6700577348165
 20
158.1020862015443
 30
0.0
 11
673.6588444651597
 21
240.1042213292412
 31
0.0
  0
VIEWPORT
  5
3EB
102
{ACAD_XDICTIONARY
360
3EC
102
}
330
74
100
AcDbEntity
 67
     1
  8
0
100
AcDbViewport
 10
148.5
 20
105.0
 30
0.0
 40
561.8168181818182
 41
222.18
 68
     1
 69
     1
 12
148.5
 22
105.0
 13
0.0
 23
0.0
 14
10.0
 24
10.0
 15
10.0
 25
10.0
 16
0.0
 26
0.0
 36
1.0
 17
0.0
 27
0.0
 37
0.0
 42
50.0
 43
0.0
 44
0.0
 45
222.18
 50
0.0
 51
0.0
 72
  1000
 90
   819232
  1

281
     0
 71
     1
 74
     0
110
0.0
120
0.0
130
0.0
111
1.0
121
0.0
131
0.0
112
0.0
122
1.0
132
0.0
 79
     0
146
0.0
170
     0
 61
     5
348
2F
292
     1
282
     1
141
0.0
142
0.0
 63
   250
421
  3355443
  0
VIEWPORT
  5
3EF
102
{ACAD_XDICTIONARY
360
3F0
102
}
330
74
100
AcDbEntity
 67
     1
  8
0
100
AcDbViewport
 10
148.4841613769531
 20
104.9866638183593
 30
0.0
 40
237.574658203125
 41
167.978662109375
 68
     2
 69
     2
 12
356.2078400795322
 22
221.1020860816179
 13
0.0
 23
0.0
 14
10.0
 24
10.0
 15
10.0
 25
10.0
 16
0.0
 26
0.0
 36
1.0
 17
0.0
 27
0.0
 37
0.0
 42
50.0
 43
0.0
 44
0.0
 45
127.9192297124306
 50
0.0
 51
0.0
 72
  1000
 90
   819296
  1

281
     0
 71
     1
 74
     0
110
0.0
120
0.0
130
0.0
111
1.0
121
0.0
131
0.0
112
0.0
122
1.0
132
0.0
 79
     0
146
0.0
170
     0
 61
     5
348
2F
292
     1
282
     1
141
0.0
142
0.0
 63
   250
421
  3355443
  0
ENDSEC
  0
SECTION
  2
OBJECTS
  0
DICTIONARY
  5
C
330
0
100
AcDbDictionary
281
     1
  3
ACAD_CIP_PREVIOUS_PRODUCT_INFO
350
7E
  3
ACAD_COLOR
350
63
  3
ACAD_DETAILVIEWSTYLE
350
6A
  3
ACAD_GROUP
350
D
  3
ACAD_LAST_SAVED_VERSION_INFO
350
4F7
  3
ACAD_LAYOUT
350
62
  3
ACAD_MATERIAL
350
10
  3
ACAD_MLEADERSTYLE
350
66
  3
ACAD_MLINESTYLE
350
5F
  3
ACAD_PLOTSETTINGS
350
61
  3
ACAD_PLOTSTYLENAME
350
E
  3
ACAD_SCALELIST
350
42
  3
ACAD_SECTIONVIEWSTYLE
350
68
  3
ACAD_TABLESTYLE
350
64
  3
ACAD_VISUALSTYLE
350
29
  3
ACDB_RECOMPOSE_DATA
350
51A
  3
AcDbVariableDictionary
350
78
  0
DICTIONARY
  5
A0
330
2
100
AcDbDictionary
280
     1
281
     1
  3
ACAD_LAYERSTATES
360
A1
  0
DICTIONARY
  5
82
330
81
100
AcDbDictionary
280
     1
281
     1
  0
DICTIONARY
  5
84
330
83
100
AcDbDictionary
280
     1
281
     1
  0
DICTIONARY
  5
86
330
85
100
AcDbDictionary
280
     1
281
     1
  0
DICTIONARY
  5
88
330
87
100
AcDbDictionary
280
     1
281
     1
  0
DICTIONARY
  5
3BE
330
31F
100
AcDbDictionary
280
     1
281
     1
  3
ACAD_SORTENTS
360
3BF
  0
DICTIONARY
  5
3DB
330
3DA
100
AcDbDictionary
280
     1
281
     1
  3
ASDK_XREC_ANNOTATION_SCALE_INFO
360
3DC
  0
DICTIONARY
  5
3DF
330
3DE
100
AcDbDictionary
280
     1
281
     1
  3
ASDK_XREC_ANNOTATION_SCALE_INFO
360
3E0
  0
DICTIONARY
  5
3EC
330
3EB
100
AcDbDictionary
280
     1
281
     1
  3
ASDK_XREC_ANNOTATION_SCALE_INFO
360
3ED
  0
DICTIONARY
  5
3F0
330
3EF
100
AcDbDictionary
280
     1
281
     1
  3
ASDK_XREC_ANNOTATION_SCALE_INFO
360
3F1
  0
XRECORD
  5
7E
102
{ACAD_REACTORS
330
C
102
}
330
C
100
AcDbXrecord
280
     1
300
ACD
300
2024
300

  0
DICTIONARY
  5
63
102
{ACAD_REACTORS
330
C
102
}
330
C
100
AcDbDictionary
281
     1
  0
DICTIONARY
  5
6A
102
{ACAD_REACTORS
330
C
102
}
330
C
100
AcDbDictionary
281
     1
  3
Metric50
350
6B
  0
DICTIONARY
  5
D
102
{ACAD_REACTORS
330
C
102
}
330
C
100
AcDbDictionary
281
     1
  0
XRECORD
  5
4F7
102
{ACAD_REACTORS
330
C
102
}
330
C
100
AcDbXrecord
280
     1
300
{5CDE5142-4C84-0F4E-9E4D-B95F156E10A7}
301
{37CE1249-A0A2-EF48-B2B8-635A1E15C51E}
302
{5CDE5142-4C84-0F4E-9E4D-B95F156E10A7}
303
C:\Users\83500\久翌\CAD编辑同步excel\测试文件区\04_Test_Files\料表.dxf
  0
DICTIONARY
  5
62
102
{ACAD_REACTORS
330
C
102
}
330
C
100
AcDbDictionary
281
     1
  3
Model
350
73
  3
布局1
350
6F
  3
布局2
350
77
  0
DICTIONARY
  5
10
102
{ACAD_REACTORS
330
C
102
}
330
C
100
AcDbDictionary
281
     1
  3
ByBlock
350
19
  3
ByLayer
350
11
  3
Global
350
21
  0
DICTIONARY
  5
66
102
{ACAD_REACTORS
330
C
102
}
330
C
100
AcDbDictionary
281
     1
  3
Standard
350
67
  0
DICTIONARY
  5
5F
102
{ACAD_REACTORS
330
C
102
}
330
C
100
AcDbDictionary
281
     1
  3
Standard
350
60
  0
DICTIONARY
  5
61
102
{ACAD_REACTORS
330
C
102
}
330
C
100
AcDbDictionary
281
     1
  0
ACDBDICTIONARYWDFLT
  5
E
102
{ACAD_REACTORS
330
C
102
}
330
C
100
AcDbDictionary
281
     1
  3
Normal
350
F
100
AcDbDictionaryWithDefault
340
F
  0
DICTIONARY
  5
42
102
{ACAD_REACTORS
330
C
102
}
330
C
100
AcDbDictionary
281
     1
  3
A0
350
43
  3
A1
350
44
  3
A2
350
45
  3
A3
350
46
  3
A4
350
47
  3
A5
350
48
  3
A6
350
49
  3
A7
350
4A
  3
A8
350
4B
  3
A9
350
4C
  3
B0
350
4D
  3
B1
350
4E
  3
B2
350
4F
  3
B3
350
50
  3
B4
350
51
  3
B5
350
52
  3
B6
350
53
  0
DICTIONARY
  5
68
102
{ACAD_REACTORS
330
C
102
}
330
C
100
AcDbDictionary
281
     1
  3
Metric50
350
69
  0
DICTIONARY
  5
64
102
{ACAD_REACTORS
330
C
102
}
330
C
100
AcDbDictionary
281
     1
  3
Standard
350
65
  3
Standard 副本
350
9F
  0
DICTIONARY
  5
29
102
{ACAD_REACTORS
330
C
102
}
330
C
100
AcDbDictionary
281
     1
  3
2dWireframe
350
2F
  3
Basic
350
2E
  3
Brighten
350
35
  3
ColorChange
350
39
  3
Conceptual
350
32
  3
Dim
350
34
  3
EdgeColorOff
350
41
  3
Facepattern
350
38
  3
Flat
350
2A
  3
FlatWithEdges
350
2B
  3
Gouraud
350
2C
  3
GouraudWithEdges
350
2D
  3
Hidden
350
31
  3
JitterOff
350
3F
  3
Linepattern
350
37
  3
OverhangOff
350
40
  3
Realistic
350
33
  3
Shaded
350
3E
  3
Shaded with edges
350
3D
  3
Shades of Gray
350
3A
  3
Sketchy
350
3B
  3
Thicken
350
36
  3
Wireframe
350
30
  3
X-Ray
350
3C
  0
XRECORD
  5
51A
102
{ACAD_REACTORS
330
C
102
}
330
C
100
AcDbXrecord
280
     1
 90
        1
330
65
330
9F
  0
DICTIONARY
  5
78
102
{ACAD_REACTORS
330
C
102
}
330
C
100
AcDbDictionary
281
     1
  3
CANNOSCALE
350
3C6
  3
CENTEREXE
350
79
  3
CENTERLTYPEFILE
350
7A
  3
CMLEADERSTYLE
350
3C3
  3
CTABLESTYLE
350
3C2
  3
CVIEWDETAILSTYLE
350
3C4
  3
CVIEWSECTIONSTYLE
350
3C5
  0
DICTIONARY
  5
A1
102
{ACAD_REACTORS
330
A0
102
}
330
A0
100
AcDbDictionary
281
     1
  0
SORTENTSTABLE
  5
3BF
102
{ACAD_REACTORS
330
3BE
102
}
330
3BE
100
AcDbSortentsTable
330
31F
  0
XRECORD
  5
3DC
102
{ACAD_REACTORS
330
3DB
102
}
330
3DB
100
AcDbXrecord
280
     1
 90
        1
340
43
  0
XRECORD
  5
3E0
102
{ACAD_REACTORS
330
3DF
102
}
330
3DF
100
AcDbXrecord
280
     1
 90
        1
340
43
  0
XRECORD
  5
3ED
102
{ACAD_REACTORS
330
3EC
102
}
330
3EC
100
AcDbXrecord
280
     1
 90
        1
340
43
  0
XRECORD
  5
3F1
102
{ACAD_REACTORS
330
3F0
102
}
330
3F0
100
AcDbXrecord
280
     1
 90
        1
340
43
  0
ACDBDETAILVIEWSTYLE
  5
6B
102
{ACAD_REACTORS
330
6A
102
}
330
6A
100
AcDbModelDocViewStyle
 70
     0
  3
Metric50
290
     1
300
Metric50
 90
        0
100
AcDbDetailViewStyle
 70
     0
 71
     0
 90
        3
 71
     1
340
55
 62
   256
 40
5.0
340
0
 62
   256
 40
5.0
300

 40
0.36
280
     1
 71
     2
340
5D
 90
       25
 62
   256
 71
     3
340
55
 62
   256
 40
5.0
 90
        0
 40
15.0
 90
        1
300
%<\AcVar ViewDetailId>% (%<\AcVar ViewScale \f "%sn">%)
 71
     4
340
5D
 90
       25
 62
   256
340
5D
 90
       25
 62
   256
280
     0
  0
LAYOUT
  5
73
102
{ACAD_REACTORS
330
62
102
}
330
62
100
AcDbPlotSettings
  1

  2
导出为WPS PDF
  4

  6

 40
0.0
 41
0.0
 42
0.0
 43
0.0
 44
0.0
 45
0.0
 46
0.0
 47
0.0
 48
0.0
 49
0.0
140
0.0
141
0.0
142
1.0
143
1.0
 70
  1712
 72
     0
 73
     0
 74
     0
  7

 75
     0
147
1.0
 76
     0
 77
     2
 78
   300
148
0.0
149
0.0
100
AcDbLayout
  1
Model
 70
     1
 71
     0
 10
0.0
 20
0.0
 11
12.0
 21
9.0
 12
0.0
 22
0.0
 32
0.0
 14
0.0
 24
0.0
 34
0.0
 15
0.0
 25
0.0
 35
0.0
146
0.0
 13
0.0
 23
0.0
 33
0.0
 16
1.0
 26
0.0
 36
0.0
 17
0.0
 27
1.0
 37
0.0
 76
     0
330
70
331
57
  0
LAYOUT
  5
6F
102
{ACAD_REACTORS
330
62
102
}
330
62
100
AcDbPlotSettings
  1

  2
导出为WPS PDF
  4
A4
  6

 40
0.0
 41
0.03167724609375
 42
0.02667236328125
 43
0.0
 44
210.0
 45
297.0
 46
0.0
 47
0.0
 48
0.0
 49
0.0
140
0.0
141
0.0
142
1.0
143
1.0
 70
   688
 72
     1
 73
     1
 74
     5
  7

 75
    16
147
1.0
 76
     0
 77
     2
 78
   300
148
0.0
149
0.0
100
AcDbLayout
  1
布局1
 70
     1
 71
     1
 10
0.0
 20
0.0
 11
297.0
 21
210.0
 12
0.0
 22
0.0
 32
0.0
 14
29.69683227539063
 24
20.99733276367186
 34
0.0
 15
267.2714904785156
 25
188.9759948730469
 35
0.0
146
0.0
 13
0.0
 23
0.0
 33
0.0
 16
1.0
 26
0.0
 36
0.0
 17
0.0
 27
1.0
 37
0.0
 76
     0
330
6C
331
3DA
1001
ACAD_PSEXT
1000
导出为WPS PDF
1000
Kingsoft Virtual Printer Driver
1000
Kingsoft Virtual Printer Port
1000

1070
     0
  0
LAYOUT
  5
77
102
{ACAD_REACTORS
330
62
102
}
330
62
100
AcDbPlotSettings
  1

  2
导出为WPS PDF
  4
A4
  6

 40
0.0
 41
0.03167724609375
 42
0.02667236328125
 43
0.0
 44
210.0
 45
297.0
 46
0.0
 47
0.0
 48
0.0
 49
0.0
140
0.0
141
0.0
142
1.0
143
1.0
 70
   688
 72
     1
 73
     1
 74
     5
  7

 75
    16
147
1.0
 76
     0
 77
     2
 78
   300
148
0.0
149
0.0
100
AcDbLayout
  1
布局2
 70
     1
 71
     2
 10
0.0
 20
0.0
 11
297.0
 21
210.0
 12
0.0
 22
0.0
 32
0.0
 14
29.69683227539063
 24
20.99733276367186
 34
0.0
 15
267.2714904785156
 25
188.9759948730469
 35
0.0
146
0.0
 13
0.0
 23
0.0
 33
0.0
 16
1.0
 26
0.0
 36
0.0
 17
0.0
 27
1.0
 37
0.0
 76
     0
330
74
331
3EB
1001
ACAD_PSEXT
1000
导出为WPS PDF
1000
Kingsoft Virtual Printer Driver
1000
Kingsoft Virtual Printer Port
1000

1070
     0
  0
MATERIAL
  5
19
102
{ACAD_XDICTIONARY
360
1A
102
}
102
{ACAD_REACTORS
330
10
102
}
330
10
100
AcDbMaterial
  1
ByBlock
 72
     0
 43
0.0208333333333333
 43
0.0
 43
0.0
 43
0.0
 43
0.0
 43
0.0208333333333333
 43
0.0
 43
0.0
 43
0.0
 43
0.0
 43
1.0
 43
0.0
 43
0.0
 43
0.0
 43
0.0
 43
1.0
 77
     0
 47
0.0208333333333333
 47
0.0
 47
0.0
 47
0.0
 47
0.0
 47
0.0208333333333333
 47
0.0
 47
0.0
 47
0.0
 47
0.0
 47
1.0
 47
0.0
 47
0.0
 47
0.0
 47
0.0
 47
1.0
171
     0
 49
0.0208333333333333
 49
0.0
 49
0.0
 49
0.0
 49
0.0
 49
0.0208333333333333
 49
0.0
 49
0.0
 49
0.0
 49
0.0
 49
1.0
 49
0.0
 49
0.0
 49
0.0
 49
0.0
 49
1.0
175
     0
142
0.0208333333333333
142
0.0
142
0.0
142
0.0
142
0.0
142
0.0208333333333333
142
0.0
142
0.0
142
0.0
142
0.0
142
1.0
142
0.0
142
0.0
142
0.0
142
0.0
142
1.0
179
     0
144
0.0208333333333333
144
0.0
144
0.0
144
0.0
144
0.0
144
0.0208333333333333
144
0.0
144
0.0
144
0.0
144
0.0
144
1.0
144
0.0
144
0.0
144
0.0
144
0.0
144
1.0
147
0.0208333333333333
147
0.0
147
0.0
147
0.0
147
0.0
147
0.0208333333333333
147
0.0
147
0.0
147
0.0
147
0.0
147
1.0
147
0.0
147
0.0
147
0.0
147
0.0
147
1.0
  0
MATERIAL
  5
11
102
{ACAD_XDICTIONARY
360
12
102
}
102
{ACAD_REACTORS
330
10
102
}
330
10
100
AcDbMaterial
  1
ByLayer
 72
     0
 43
0.0208333333333333
 43
0.0
 43
0.0
 43
0.0
 43
0.0
 43
0.0208333333333333
 43
0.0
 43
0.0
 43
0.0
 43
0.0
 43
1.0
 43
0.0
 43
0.0
 43
0.0
 43
0.0
 43
1.0
 77
     0
 47
0.0208333333333333
 47
0.0
 47
0.0
 47
0.0
 47
0.0
 47
0.0208333333333333
 47
0.0
 47
0.0
 47
0.0
 47
0.0
 47
1.0
 47
0.0
 47
0.0
 47
0.0
 47
0.0
 47
1.0
171
     0
 49
0.0208333333333333
 49
0.0
 49
0.0
 49
0.0
 49
0.0
 49
0.0208333333333333
 49
0.0
 49
0.0
 49
0.0
 49
0.0
 49
1.0
 49
0.0
 49
0.0
 49
0.0
 49
0.0
 49
1.0
175
     0
142
0.0208333333333333
142
0.0
142
0.0
142
0.0
142
0.0
142
0.0208333333333333
142
0.0
142
0.0
142
0.0
142
0.0
142
1.0
142
0.0
142
0.0
142
0.0
142
0.0
142
1.0
179
     0
144
0.0208333333333333
144
0.0
144
0.0
144
0.0
144
0.0
144
0.0208333333333333
144
0.0
144
0.0
144
0.0
144
0.0
144
1.0
144
0.0
144
0.0
144
0.0
144
0.0
144
1.0
147
0.0208333333333333
147
0.0
147
0.0
147
0.0
147
0.0
147
0.0208333333333333
147
0.0
147
0.0
147
0.0
147
0.0
147
1.0
147
0.0
147
0.0
147
0.0
147
0.0
147
1.0
  0
MATERIAL
  5
21
102
{ACAD_XDICTIONARY
360
22
102
}
102
{ACAD_REACTORS
330
10
102
}
330
10
100
AcDbMaterial
  1
Global
 72
     0
 43
0.0208333333333333
 43
0.0
 43
0.0
 43
0.0
 43
0.0
 43
0.0208333333333333
 43
0.0
 43
0.0
 43
0.0
 43
0.0
 43
1.0
 43
0.0
 43
0.0
 43
0.0
 43
0.0
 43
1.0
 77
     0
 47
0.0208333333333333
 47
0.0
 47
0.0
 47
0.0
 47
0.0
 47
0.0208333333333333
 47
0.0
 47
0.0
 47
0.0
 47
0.0
 47
1.0
 47
0.0
 47
0.0
 47
0.0
 47
0.0
 47
1.0
171
     0
 49
0.0208333333333333
 49
0.0
 49
0.0
 49
0.0
 49
0.0
 49
0.0208333333333333
 49
0.0
 49
0.0
 49
0.0
 49
0.0
 49
1.0
 49
0.0
 49
0.0
 49
0.0
 49
0.0
 49
1.0
175
     0
142
0.0208333333333333
142
0.0
142
0.0
142
0.0
142
0.0
142
0.0208333333333333
142
0.0
142
0.0
142
0.0
142
0.0
142
1.0
142
0.0
142
0.0
142
0.0
142
0.0
142
1.0
179
     0
144
0.0208333333333333
144
0.0
144
0.0
144
0.0
144
0.0
144
0.0208333333333333
144
0.0
144
0.0
144
0.0
144
0.0
144
1.0
144
0.0
144
0.0
144
0.0
144
0.0
144
1.0
147
0.0208333333333333
147
0.0
147
0.0
147
0.0
147
0.0
147
0.0208333333333333
147
0.0
147
0.0
147
0.0
147
0.0
147
1.0
147
0.0
147
0.0
147
0.0
147
0.0
147
1.0
  0
MLEADERSTYLE
  5
67
102
{ACAD_REACTORS
330
66
102
}
330
66
100
AcDbMLeaderStyle
179
     2
170
     2
171
     1
172
     0
 90
        2
 40
0.0
 41
0.0
173
     1
 91
-1056964608
340
5B
 92
       -2
290
     1
 42
0.09
291
     1
 43
0.36
  3
Standard
 44
0.18
300

342
55
174
     1
178
     6
175
     1
176
     0
 93
-1056964608
 45
0.18
292
     0
297
     0
 46
0.18
 94
-1056964608
 47
1.0
 49
1.0
140
1.0
293
     1
141
0.0
294
     1
177
     0
142
1.0
295
     1
296
     0
143
0.125
271
     0
272
     9
273
     9
298
     1
  0
MLINESTYLE
  5
60
102
{ACAD_REACTORS
330
5F
102
}
330
5F
100
AcDbMlineStyle
  2
STANDARD
 70
     0
  3

 62
   256
 51
90.0
 52
90.0
 71
     2
 49
0.5
 62
   256
  6
BYLAYER
 49
-0.5
 62
   256
  6
BYLAYER
  0
ACDBPLACEHOLDER
  5
F
102
{ACAD_REACTORS
330
E
102
}
330
E
  0
SCALE
  5
43
102
{ACAD_REACTORS
330
42
102
}
330
42
100
AcDbScale
 70
     0
300
1:1
140
1.0
141
1.0
290
     1
  0
SCALE
  5
44
102
{ACAD_REACTORS
330
42
102
}
330
42
100
AcDbScale
 70
     0
300
1:2
140
1.0
141
2.0
290
     0
  0
SCALE
  5
45
102
{ACAD_REACTORS
330
42
102
}
330
42
100
AcDbScale
 70
     0
300
1:4
140
1.0
141
4.0
290
     0
  0
SCALE
  5
46
102
{ACAD_REACTORS
330
42
102
}
330
42
100
AcDbScale
 70
     0
300
1:5
140
1.0
141
5.0
290
     0
  0
SCALE
  5
47
102
{ACAD_REACTORS
330
42
102
}
330
42
100
AcDbScale
 70
     0
300
1:8
140
1.0
141
8.0
290
     0
  0
SCALE
  5
48
102
{ACAD_REACTORS
330
42
102
}
330
42
100
AcDbScale
 70
     0
300
1:10
140
1.0
141
10.0
290
     0
  0
SCALE
  5
49
102
{ACAD_REACTORS
330
42
102
}
330
42
100
AcDbScale
 70
     0
300
1:16
140
1.0
141
16.0
290
     0
  0
SCALE
  5
4A
102
{ACAD_REACTORS
330
42
102
}
330
42
100
AcDbScale
 70
     0
300
1:20
140
1.0
141
20.0
290
     0
  0
SCALE
  5
4B
102
{ACAD_REACTORS
330
42
102
}
330
42
100
AcDbScale
 70
     0
300
1:30
140
1.0
141
30.0
290
     0
  0
SCALE
  5
4C
102
{ACAD_REACTORS
330
42
102
}
330
42
100
AcDbScale
 70
     0
300
1:40
140
1.0
141
40.0
290
     0
  0
SCALE
  5
4D
102
{ACAD_REACTORS
330
42
102
}
330
42
100
AcDbScale
 70
     0
300
1:50
140
1.0
141
50.0
290
     0
  0
SCALE
  5
4E
102
{ACAD_REACTORS
330
42
102
}
330
42
100
AcDbScale
 70
     0
300
1:100
140
1.0
141
100.0
290
     0
  0
SCALE
  5
4F
102
{ACAD_REACTORS
330
42
102
}
330
42
100
AcDbScale
 70
     0
300
2:1
140
2.0
141
1.0
290
     0
  0
SCALE
  5
50
102
{ACAD_REACTORS
330
42
102
}
330
42
100
AcDbScale
 70
     0
300
4:1
140
4.0
141
1.0
290
     0
  0
SCALE
  5
51
102
{ACAD_REACTORS
330
42
102
}
330
42
100
AcDbScale
 70
     0
300
8:1
140
8.0
141
1.0
290
     0
  0
SCALE
  5
52
102
{ACAD_REACTORS
330
42
102
}
330
42
100
AcDbScale
 70
     0
300
10:1
140
10.0
141
1.0
290
     0
  0
SCALE
  5
53
102
{ACAD_REACTORS
330
42
102
}
330
42
100
AcDbScale
 70
     0
300
100:1
140
100.0
141
1.0
290
     0
  0
ACDBSECTIONVIEWSTYLE
  5
69
102
{ACAD_REACTORS
330
68
102
}
330
68
100
AcDbModelDocViewStyle
 70
     0
  3
Metric50
290
     1
300
Metric50
 90
        0
100
AcDbSectionViewStyle
 70
     0
 71
     0
 90
      102
 71
     1
340
55
 62
   256
 40
5.0
340
0
340
0
 62
   256
 40
5.0
300
I, O, Q, S, X, Z
 40
10.0
 90
        0
 40
2.5
 90
        0
 71
     2
340
5D
 90
       25
 62
   256
340
5D
 90
       50
 62
   256
 40
5.0
 40
2.5
 40
5.0
 71
     3
340
55
 62
   256
 40
5.0
 90
        0
 40
15.0
 90
        1
300
%<\AcVar ViewSectionStartId>%-%<\AcVar ViewSectionEndId>% (%<\AcVar ViewScale \f "%sn">%)
 71
     4
 62
   256
 62
   257
300
ANSI31
 40
1.0
 90
        0
290
     0
290
     0
 90
        6
 40
0.0
 40
1.570796326794896
 40
0.2617993877991494
 40
1.308996938995747
 40
-0.2617993877991494
 40
1.832595714594046
  0
TABLESTYLE
  5
65
102
{ACAD_XDICTIONARY
360
516
102
}
102
{ACAD_REACTORS
330
64
102
}
330
64
100
AcDbTableStyle
280
     0
  3
Standard
 70
     0
 71
     0
 40
1.5
 41
1.5
280
     0
281
     0
  7
Standard
140
4.5
170
     2
 62
     0
 63
     7
283
     0
 90
      512
 91
        0
  1

274
    -2
284
     1
 64
     0
275
    -2
285
     1
 65
     0
276
    -2
286
     1
 66
     0
277
    -2
287
     1
 67
     0
278
    -2
288
     1
 68
     0
279
    -2
289
     1
 69
     0
  7
Standard
140
6.0
170
     5
 62
     0
 63
     7
283
     0
 90
      512
 91
        0
  1

274
    -2
284
     1
 64
     0
275
    -2
285
     1
 65
     0
276
    -2
286
     1
 66
     0
277
    -2
287
     1
 67
     0
278
    -2
288
     1
 68
     0
279
    -2
289
     1
 69
     0
  7
Standard
140
4.5
170
     5
 62
     0
 63
     7
283
     0
 90
      512
 91
        0
  1

274
    -2
284
     1
 64
     0
275
    -2
285
     1
 65
     0
276
    -2
286
     1
 66
     0
277
    -2
287
     1
 67
     0
278
    -2
288
     1
 68
     0
279
    -2
289
     1
 69
     0
  0
TABLESTYLE
  5
9F
102
{ACAD_XDICTIONARY
360
518
102
}
102
{ACAD_REACTORS
330
64
102
}
330
64
100
AcDbTableStyle
280
     0
  3
Standard
 70
     1
 71
     0
 40
1.5
 41
1.5
280
     0
281
     0
  7
HZTXT
140
4.5
170
     2
 62
     0
 63
     7
283
     0
 90
      512
 91
        0
  1

274
    -2
284
     1
 64
     0
275
    -2
285
     1
 65
     0
276
    -2
286
     1
 66
     0
277
    -2
287
     1
 67
     0
278
    -2
288
     1
 68
     0
279
    -2
289
     1
 69
     0
  7
Standard
140
6.0
170
     5
 62
     0
 63
     7
283
     0
 90
      512
 91
        0
  1

274
    -2
284
     1
 64
     0
275
    -2
285
     1
 65
     0
276
    -2
286
     1
 66
     0
277
    -2
287
     1
 67
     0
278
    -2
288
     1
 68
     0
279
    -2
289
     1
 69
     0
  7
Standard
140
4.5
170
     5
 62
     0
 63
     7
283
     0
 90
      512
 91
        0
  1

274
    -2
284
     1
 64
     0
275
    -2
285
     1
 65
     0
276
    -2
286
     1
 66
     0
277
    -2
287
     1
 67
     0
278
    -2
288
     1
 68
     0
279
    -2
289
     1
 69
     0
  0
VISUALSTYLE
  5
2F
102
{ACAD_REACTORS
330
29
102
}
330
29
100
AcDbVisualStyle
  2
2dWireframe
 70
     4
177
     3
291
     0
 70
    58
 90
        0
176
     1
 90
        2
176
     1
 90
        0
176
     1
 90
        0
176
     1
 40
0.6
176
     1
 40
30.0
176
     1
 62
     7
420
 16777215
176
     1
 90
        1
176
     1
 90
        4
176
     1
 62
     7
176
     1
 62
   257
176
     1
 90
        1
176
     1
 90
        1
176
     1
 40
1.0
176
     1
 90
        0
176
     1
 62
   257
176
     1
 40
1.0
176
     1
 90
        1
176
     1
 90
        6
176
     1
 90
        2
176
     1
 62
     7
176
     1
 90
        5
176
     1
 90
        0
176
     1
 90
        0
176
     1
290
     0
176
     1
 90
        1
176
     1
 40
0.0
176
     1
 90
        0
176
     1
290
     1
176
     1
290
     1
176
     1
290
     0
176
     1
290
     0
176
     1
290
     0
176
     1
290
     0
176
     1
290
     0
176
     1
290
     0
176
     1
290
     0
176
     1
 90
       50
176
     1
 40
0.0
176
     1
 40
1.0
176
     1
 90
        0
176
     1
 62
    18
420
        0
176
     1
 90
       50
176
     1
 90
        3
176
     1
 62
     5
420
      255
176
     1
290
     0
176
     1
 90
       50
176
     1
 90
       50
176
     1
 90
       50
176
     1
290
     0
176
     1
 90
       50
176
     1
 62
   256
176
     0
 40
1.0
176
     0
 90
        2
176
     1
  1
strokes_ogs.tif
176
     1
290
     0
176
     1
 40
1.0
176
     1
 40
1.0
176
     1
  0
VISUALSTYLE
  5
2E
102
{ACAD_REACTORS
330
29
102
}
330
29
100
AcDbVisualStyle
  2
Basic
 70
     7
177
     3
291
     1
 70
    58
 90
        1
176
     1
 90
        0
176
     1
 90
        1
176
     1
 90
        0
176
     1
 40
0.6
176
     1
 40
30.0
176
     1
 62
     7
420
 16777215
176
     1
 90
        0
176
     1
 90
        4
176
     1
 62
     7
176
     1
 62
   257
176
     1
 90
        1
176
     1
 90
        1
176
     1
 40
1.0
176
     1
 90
        8
176
     1
 62
     7
176
     1
 40
1.0
176
     1
 90
        1
176
     1
 90
        6
176
     1
 90
        2
176
     1
 62
     7
176
     1
 90
        5
176
     1
 90
        0
176
     1
 90
        0
176
     1
290
     0
176
     1
 90
        1
176
     1
 40
0.0
176
     1
 90
        0
176
     1
290
     0
176
     1
290
     1
176
     1
290
     1
176
     1
290
     0
176
     1
290
     0
176
     1
290
     0
176
     1
290
     0
176
     1
290
     0
176
     1
290
     0
176
     1
 90
       50
176
     1
 40
0.0
176
     1
 40
1.0
176
     1
 90
        0
176
     1
 62
    18
420
        0
176
     1
 90
       50
176
     1
 90
        3
176
     1
 62
     5
420
      255
176
     1
290
     0
176
     1
 90
       50
176
     1
 90
       50
176
     1
 90
       50
176
     1
290
     0
176
     1
 90
       50
176
     1
 62
   256
176
     0
 40
1.0
176
     0
 90
        2
176
     1
  1
strokes_ogs.tif
176
     1
290
     0
176
     1
 40
1.0
176
     1
 40
1.0
176
     1
  0
VISUALSTYLE
  5
35
102
{ACAD_REACTORS
330
29
102
}
330
29
100
AcDbVisualStyle
  2
Brighten
 70
    12
177
     3
291
     1
 70
    58
 90
        2
176
     1
 90
        2
176
     1
 90
        0
176
     1
 90
        0
176
     1
 40
0.6
176
     1
 40
30.0
176
     1
 62
     7
420
 16777215
176
     1
 90
        1
176
     1
 90
        4
176
     1
 62
     7
176
     1
 62
   257
176
     1
 90
        1
176
     1
 90
        1
176
     1
 40
1.0
176
     1
 90
        8
176
     1
 62
     7
176
     1
 40
1.0
176
     1
 90
        1
176
     1
 90
        6
176
     1
 90
        2
176
     1
 62
     7
176
     1
 90
        5
176
     1
 90
        0
176
     1
 90
        0
176
     1
290
     0
176
     1
 90
        1
176
     1
 40
50.0
176
     1
 90
        0
176
     1
290
     0
176
     1
290
     1
176
     1
290
     1
176
     1
290
     0
176
     1
290
     0
176
     1
290
     0
176
     1
290
     0
176
     1
290
     0
176
     1
290
     0
176
     1
 90
       50
176
     1
 40
0.0
176
     1
 40
1.0
176
     1
 90
        0
176
     1
 62
    18
420
        0
176
     1
 90
       50
176
     1
 90
        3
176
     1
 62
     5
420
      255
176
     1
290
     0
176
     1
 90
       50
176
     1
 90
       50
176
     1
 90
       50
176
     1
290
     0
176
     1
 90
       50
176
     1
 62
   256
176
     0
 40
1.0
176
     0
 90
        2
176
     1
  1
strokes_ogs.tif
176
     1
290
     0
176
     1
 40
1.0
176
     1
 40
1.0
176
     1
  0
VISUALSTYLE
  5
39
102
{ACAD_REACTORS
330
29
102
}
330
29
100
AcDbVisualStyle
  2
ColorChange
 70
    16
177
     3
291
     1
 70
    58
 90
        2
176
     1
 90
        2
176
     1
 90
        3
176
     1
 90
        0
176
     1
 40
0.6
176
     1
 40
30.0
176
     1
 62
     8
420
  8421504
176
     1
 90
        1
176
     1
 90
        4
176
     1
 62
     7
176
     1
 62
   257
176
     1
 90
        1
176
     1
 90
        1
176
     1
 40
1.0
176
     1
 90
        8
176
     1
 62
     8
420
  8421504
176
     1
 40
1.0
176
     1
 90
        1
176
     1
 90
        6
176
     1
 90
        2
176
     1
 62
     7
176
     1
 90
        5
176
     1
 90
        0
176
     1
 90
        0
176
     1
290
     0
176
     1
 90
        1
176
     1
 40
0.0
176
     1
 90
        0
176
     1
290
     0
176
     1
290
     1
176
     1
290
     1
176
     1
290
     0
176
     1
290
     0
176
     1
290
     0
176
     1
290
     0
176
     1
290
     0
176
     1
290
     0
176
     1
 90
       50
176
     1
 40
0.0
176
     1
 40
1.0
176
     1
 90
        0
176
     1
 62
    18
420
        0
176
     1
 90
       50
176
     1
 90
        3
176
     1
 62
     5
420
      255
176
     1
290
     0
176
     1
 90
       50
176
     1
 90
       50
176
     1
 90
       50
176
     1
290
     0
176
     1
 90
       50
176
     1
 62
   256
176
     0
 40
1.0
176
     0
 90
        2
176
     1
  1
strokes_ogs.tif
176
     1
290
     0
176
     1
 40
1.0
176
     1
 40
1.0
176
     1
  0
VISUALSTYLE
  5
32
102
{ACAD_REACTORS
330
29
102
}
330
29
100
AcDbVisualStyle
  2
Conceptual
 70
     9
177
     3
291
     0
 70
    58
 90
        3
176
     1
 90
        2
176
     1
 90
        0
176
     1
 90
        0
176
     1
 40
0.6
176
     1
 40
30.0
176
     1
 62
     7
420
 16777215
176
     1
 90
        2
176
     1
 90
        2
176
     1
 62
     7
176
     1
 62
   257
176
     1
 90
        1
176
     1
 90
        1
176
     1
 40
179.0
176
     1
 90
        8
176
     1
 62
     7
176
     1
 40
1.0
176
     1
 90
        1
176
     1
 90
        6
176
     1
 90
        2
176
     1
 62
     7
176
     1
 90
        3
176
     1
 90
        0
176
     1
 90
        0
176
     1
290
     0
176
     1
 90
        1
176
     1
 40
0.0
176
     1
 90
        0
176
     1
290
     0
176
     1
290
     1
176
     1
290
     1
176
     1
290
     0
176
     1
290
     0
176
     1
290
     0
176
     1
290
     0
176
     1
290
     0
176
     1
290
     0
176
     1
 90
       50
176
     1
 40
0.0
176
     1
 40
1.0
176
     1
 90
        0
176
     1
 62
    18
420
        0
176
     1
 90
       50
176
     1
 90
        3
176
     1
 62
     5
420
      255
176
     1
290
     0
176
     1
 90
       50
176
     1
 90
       50
176
     1
 90
       50
176
     1
290
     0
176
     1
 90
       50
176
     1
 62
   256
176
     0
 40
1.0
176
     0
 90
        2
176
     1
  1
strokes_ogs.tif
176
     1
290
     0
176
     1
 40
1.0
176
     1
 40
1.0
176
     1
  0
VISUALSTYLE
  5
34
102
{ACAD_REACTORS
330
29
102
}
330
29
100
AcDbVisualStyle
  2
Dim
 70
    11
177
     3
291
     1
 70
    58
 90
        2
176
     1
 90
        2
176
     1
 90
        0
176
     1
 90
        0
176
     1
 40
0.6
176
     1
 40
30.0
176
     1
 62
     7
420
 16777215
176
     1
 90
        1
176
     1
 90
        4
176
     1
 62
     7
176
     1
 62
   257
176
     1
 90
        1
176
     1
 90
        1
176
     1
 40
1.0
176
     1
 90
        8
176
     1
 62
     7
176
     1
 40
1.0
176
     1
 90
        1
176
     1
 90
        6
176
     1
 90
        2
176
     1
 62
     7
176
     1
 90
        5
176
     1
 90
        0
176
     1
 90
        0
176
     1
290
     0
176
     1
 90
        1
176
     1
 40
-50.0
176
     1
 90
        0
176
     1
290
     0
176
     1
290
     1
176
     1
290
     1
176
     1
290
     0
176
     1
290
     0
176
     1
290
     0
176
     1
290
     0
176
     1
290
     0
176
     1
290
     0
176
     1
 90
       50
176
     1
 40
0.0
176
     1
 40
1.0
176
     1
 90
        0
176
     1
 62
    18
420
        0
176
     1
 90
       50
176
     1
 90
        3
176
     1
 62
     5
420
      255
176
     1
290
     0
176
     1
 90
       50
176
     1
 90
       50
176
     1
 90
       50
176
     1
290
     0
176
     1
 90
       50
176
     1
 62
   256
176
     0
 40
1.0
176
     0
 90
        2
176
     1
  1
strokes_ogs.tif
176
     1
290
     0
176
     1
 40
1.0
176
     1
 40
1.0
176
     1
  0
VISUALSTYLE
  5
41
102
{ACAD_REACTORS
330
29
102
}
330
29
100
AcDbVisualStyle
  2
EdgeColorOff
 70
    22
177
     3
291
     1
 70
    58
 90
        2
176
     0
 90
        2
176
     0
 90
        0
176
     0
 90
        0
176
     0
 40
0.6
176
     0
 40
30.0
176
     0
 62
     7
420
 16777215
176
     0
 90
        1
176
     0
 90
        4
176
     0
 62
     7
176
     0
 62
   257
176
     0
 90
        1
176
     0
 90
        1
176
     0
 40
1.0
176
     0
 90
        8
176
     2
 62
     7
176
     0
 40
1.0
176
     0
 90
        1
176
     0
 90
        6
176
     0
 90
        2
176
     0
 62
     7
176
     0
 90
        5
176
     0
 90
        0
176
     0
 90
        0
176
     0
290
     0
176
     0
 90
        1
176
     0
 40
0.0
176
     0
 90
        0
176
     0
290
     0
176
     0
290
     1
176
     0
290
     1
176
     0
290
     0
176
     0
290
     0
176
     0
290
     0
176
     0
290
     0
176
     0
290
     0
176
     0
290
     0
176
     0
 90
       50
176
     0
 40
0.0
176
     0
 40
1.0
176
     0
 90
        0
176
     0
 62
    18
420
        0
176
     0
 90
       50
176
     0
 90
        3
176
     0
 62
     5
420
      255
176
     0
290
     0
176
     0
 90
       50
176
     0
 90
       50
176
     0
 90
       50
176
     0
290
     0
176
     0
 90
       50
176
     0
 62
   256
176
     0
 40
1.0
176
     0
 90
        2
176
     0
  1
strokes_ogs.tif
176
     0
290
     0
176
     0
 40
1.0
176
     0
 40
1.0
176
     0
  0
VISUALSTYLE
  5
38
102
{ACAD_REACTORS
330
29
102
}
330
29
100
AcDbVisualStyle
  2
Facepattern
 70
    15
177
     3
291
     1
 70
    58
 90
        2
176
     1
 90
        2
176
     1
 90
        0
176
     1
 90
        0
176
     1
 40
0.6
176
     1
 40
30.0
176
     1
 62
     7
420
 16777215
176
     1
 90
        1
176
     1
 90
        4
176
     1
 62
     7
176
     1
 62
   257
176
     1
 90
        1
176
     1
 90
        1
176
     1
 40
1.0
176
     1
 90
        8
176
     1
 62
     7
176
     1
 40
1.0
176
     1
 90
        1
176
     1
 90
        6
176
     1
 90
        2
176
     1
 62
     7
176
     1
 90
        5
176
     1
 90
        0
176
     1
 90
        0
176
     1
290
     0
176
     1
 90
        1
176
     1
 40
0.0
176
     1
 90
        0
176
     1
290
     0
176
     1
290
     1
176
     1
290
     1
176
     1
290
     0
176
     1
290
     0
176
     1
290
     0
176
     1
290
     0
176
     1
290
     0
176
     1
290
     0
176
     1
 90
       50
176
     1
 40
0.0
176
     1
 40
1.0
176
     1
 90
        0
176
     1
 62
    18
420
        0
176
     1
 90
       50
176
     1
 90
        3
176
     1
 62
     5
420
      255
176
     1
290
     0
176
     1
 90
       50
176
     1
 90
       50
176
     1
 90
       50
176
     1
290
     0
176
     1
 90
       50
176
     1
 62
   256
176
     0
 40
1.0
176
     0
 90
        2
176
     1
  1
strokes_ogs.tif
176
     1
290
     0
176
     1
 40
1.0
176
     1
 40
1.0
176
     1
  0
VISUALSTYLE
  5
2A
102
{ACAD_REACTORS
330
29
102
}
330
29
100
AcDbVisualStyle
  2
Flat
 70
     0
177
     3
291
     1
 70
    58
 90
        2
176
     1
 90
        1
176
     1
 90
        1
176
     1
 90
        2
176
     1
 40
0.6
176
     1
 40
30.0
176
     1
 62
     7
420
 16777215
176
     1
 90
        0
176
     1
 90
        0
176
     1
 62
     7
176
     1
 62
   257
176
     1
 90
        1
176
     1
 90
        1
176
     1
 40
1.0
176
     1
 90
        8
176
     1
 62
     7
176
     1
 40
1.0
176
     1
 90
        1
176
     1
 90
        6
176
     1
 90
        2
176
     1
 62
     7
176
     1
 90
        5
176
     1
 90
        0
176
     1
 90
        0
176
     1
290
     0
176
     1
 90
       13
176
     1
 40
0.0
176
     1
 90
        0
176
     1
290
     0
176
     1
290
     1
176
     1
290
     1
176
     1
290
     0
176
     1
290
     0
176
     1
290
     0
176
     1
290
     0
176
     1
290
     0
176
     1
290
     0
176
     1
 90
       50
176
     1
 40
0.0
176
     1
 40
1.0
176
     1
 90
        0
176
     1
 62
    18
420
        0
176
     1
 90
       50
176
     1
 90
        3
176
     1
 62
     5
420
      255
176
     1
290
     0
176
     1
 90
       50
176
     1
 90
       50
176
     1
 90
       50
176
     1
290
     0
176
     1
 90
       50
176
     1
 62
   256
176
     0
 40
1.0
176
     0
 90
        2
176
     1
  1
strokes_ogs.tif
176
     1
290
     0
176
     1
 40
1.0
176
     1
 40
1.0
176
     1
  0
VISUALSTYLE
  5
2B
102
{ACAD_REACTORS
330
29
102
}
330
29
100
AcDbVisualStyle
  2
FlatWithEdges
 70
     1
177
     3
291
     1
 70
    58
 90
        2
176
     1
 90
        1
176
     1
 90
        1
176
     1
 90
        2
176
     1
 40
0.6
176
     1
 40
30.0
176
     1
 62
     7
420
 16777215
176
     1
 90
        1
176
     1
 90
        0
176
     1
 62
     7
176
     1
 62
   257
176
     1
 90
        1
176
     1
 90
        1
176
     1
 40
1.0
176
     1
 90
        0
176
     1
 62
   257
176
     1
 40
1.0
176
     1
 90
        1
176
     1
 90
        6
176
     1
 90
        2
176
     1
 62
     7
176
     1
 90
        5
176
     1
 90
        0
176
     1
 90
        0
176
     1
290
     0
176
     1
 90
       13
176
     1
 40
0.0
176
     1
 90
        0
176
     1
290
     0
176
     1
290
     1
176
     1
290
     1
176
     1
290
     0
176
     1
290
     0
176
     1
290
     0
176
     1
290
     0
176
     1
290
     0
176
     1
290
     0
176
     1
 90
       50
176
     1
 40
0.0
176
     1
 40
1.0
176
     1
 90
        0
176
     1
 62
    18
420
        0
176
     1
 90
       50
176
     1
 90
        3
176
     1
 62
     5
420
      255
176
     1
290
     0
176
     1
 90
       50
176
     1
 90
       50
176
     1
 90
       50
176
     1
290
     0
176
     1
 90
       50
176
     1
 62
   256
176
     0
 40
1.0
176
     0
 90
        2
176
     1
  1
strokes_ogs.tif
176
     1
290
     0
176
     1
 40
1.0
176
     1
 40
1.0
176
     1
  0
VISUALSTYLE
  5
2C
102
{ACAD_REACTORS
330
29
102
}
330
29
100
AcDbVisualStyle
  2
Gouraud
 70
     2
177
     3
291
     1
 70
    58
 90
        2
176
     1
 90
        2
176
     1
 90
        1
176
     1
 90
        2
176
     1
 40
0.6
176
     1
 40
30.0
176
     1
 62
     7
420
 16777215
176
     1
 90
        0
176
     1
 90
        0
176
     1
 62
     7
176
     1
 62
   257
176
     1
 90
        1
176
     1
 90
        1
176
     1
 40
1.0
176
     1
 90
        0
176
     1
 62
     7
176
     1
 40
1.0
176
     1
 90
        1
176
     1
 90
        6
176
     1
 90
        2
176
     1
 62
     7
176
     1
 90
        5
176
     1
 90
        0
176
     1
 90
        0
176
     1
290
     0
176
     1
 90
       13
176
     1
 40
0.0
176
     1
 90
        0
176
     1
290
     0
176
     1
290
     1
176
     1
290
     1
176
     1
290
     0
176
     1
290
     0
176
     1
290
     0
176
     1
290
     0
176
     1
290
     0
176
     1
290
     0
176
     1
 90
       50
176
     1
 40
0.0
176
     1
 40
1.0
176
     1
 90
        0
176
     1
 62
    18
420
        0
176
     1
 90
       50
176
     1
 90
        3
176
     1
 62
     5
420
      255
176
     1
290
     0
176
     1
 90
       50
176
     1
 90
       50
176
     1
 90
       50
176
     1
290
     0
176
     1
 90
       50
176
     1
 62
   256
176
     0
 40
1.0
176
     0
 90
        2
176
     1
  1
strokes_ogs.tif
176
     1
290
     0
176
     1
 40
1.0
176
     1
 40
1.0
176
     1
  0
VISUALSTYLE
  5
2D
102
{ACAD_REACTORS
330
29
102
}
330
29
100
AcDbVisualStyle
  2
GouraudWithEdges
 70
     3
177
     3
291
     1
 70
    58
 90
        2
176
     1
 90
        2
176
     1
 90
        1
176
     1
 90
        2
176
     1
 40
0.6
176
     1
 40
30.0
176
     1
 62
     7
420
 16777215
176
     1
 90
        1
176
     1
 90
        0
176
     1
 62
     7
176
     1
 62
   257
176
     1
 90
        1
176
     1
 90
        1
176
     1
 40
1.0
176
     1
 90
        0
176
     1
 62
   257
176
     1
 40
1.0
176
     1
 90
        1
176
     1
 90
        6
176
     1
 90
        2
176
     1
 62
     7
176
     1
 90
        5
176
     1
 90
        0
176
     1
 90
        0
176
     1
290
     0
176
     1
 90
       13
176
     1
 40
0.0
176
     1
 90
        0
176
     1
290
     0
176
     1
290
     1
176
     1
290
     1
176
     1
290
     0
176
     1
290
     0
176
     1
290
     0
176
     1
290
     0
176
     1
290
     0
176
     1
290
     0
176
     1
 90
       50
176
     1
 40
0.0
176
     1
 40
1.0
176
     1
 90
        0
176
     1
 62
    18
420
        0
176
     1
 90
       50
176
     1
 90
        3
176
     1
 62
     5
420
      255
176
     1
290
     0
176
     1
 90
       50
176
     1
 90
       50
176
     1
 90
       50
176
     1
290
     0
176
     1
 90
       50
176
     1
 62
   256
176
     0
 40
1.0
176
     0
 90
        2
176
     1
  1
strokes_ogs.tif
176
     1
290
     0
176
     1
 40
1.0
176
     1
 40
1.0
176
     1
  0
VISUALSTYLE
  5
31
102
{ACAD_REACTORS
330
29
102
}
330
29
100
AcDbVisualStyle
  2
Hidden
 70
     6
177
     3
291
     0
 70
    58
 90
        1
176
     1
 90
        2
176
     1
 90
        2
176
     1
 90
        0
176
     1
 40
0.6
176
     1
 40
30.0
176
     1
 62
     7
420
 16777215
176
     1
 90
        2
176
     1
 90
        2
176
     1
 62
     7
176
     1
 62
   257
176
     1
 90
        2
176
     1
 90
        1
176
     1
 40
40.0
176
     1
 90
        0
176
     1
 62
   257
176
     1
 40
1.0
176
     1
 90
        1
176
     1
 90
        6
176
     1
 90
        2
176
     1
 62
     7
176
     1
 90
        3
176
     1
 90
        0
176
     1
 90
        0
176
     1
290
     0
176
     1
 90
        1
176
     1
 40
0.0
176
     1
 90
        0
176
     1
290
     0
176
     1
290
     1
176
     1
290
     1
176
     1
290
     0
176
     1
290
     0
176
     1
290
     0
176
     1
290
     0
176
     1
290
     0
176
     1
290
     0
176
     1
 90
       50
176
     1
 40
0.0
176
     1
 40
1.0
176
     1
 90
        0
176
     1
 62
    18
420
        0
176
     1
 90
       50
176
     1
 90
        3
176
     1
 62
     5
420
      255
176
     1
290
     0
176
     1
 90
       50
176
     1
 90
       50
176
     1
 90
       50
176
     1
290
     0
176
     1
 90
       50
176
     1
 62
   256
176
     0
 40
1.0
176
     0
 90
        2
176
     1
  1
strokes_ogs.tif
176
     1
290
     0
176
     1
 40
1.0
176
     1
 40
1.0
176
     1
  0
VISUALSTYLE
  5
3F
102
{ACAD_REACTORS
330
29
102
}
330
29
100
AcDbVisualStyle
  2
JitterOff
 70
    20
177
     3
291
     1
 70
    58
 90
        2
176
     0
 90
        2
176
     0
 90
        0
176
     0
 90
        0
176
     0
 40
0.6
176
     0
 40
30.0
176
     0
 62
     7
420
 16777215
176
     0
 90
        1
176
     0
 90
        4
176
     0
 62
     7
176
     0
 62
   257
176
     0
 90
        1
176
     0
 90
        1
176
     0
 40
1.0
176
     0
 90
       10
176
     2
 62
     7
176
     0
 40
1.0
176
     0
 90
        1
176
     0
 90
        6
176
     0
 90
        2
176
     0
 62
     7
176
     0
 90
        5
176
     0
 90
        0
176
     0
 90
        0
176
     0
290
     0
176
     0
 90
        1
176
     0
 40
0.0
176
     0
 90
        0
176
     0
290
     0
176
     0
290
     1
176
     0
290
     1
176
     0
290
     0
176
     0
290
     0
176
     0
290
     0
176
     0
290
     0
176
     0
290
     0
176
     0
290
     0
176
     0
 90
       50
176
     0
 40
0.0
176
     0
 40
1.0
176
     0
 90
        0
176
     0
 62
    18
420
        0
176
     0
 90
       50
176
     0
 90
        3
176
     0
 62
     5
420
      255
176
     0
290
     0
176
     0
 90
       50
176
     0
 90
       50
176
     0
 90
       50
176
     0
290
     0
176
     0
 90
       50
176
     0
 62
   256
176
     0
 40
1.0
176
     0
 90
        2
176
     0
  1
strokes_ogs.tif
176
     0
290
     0
176
     0
 40
1.0
176
     0
 40
1.0
176
     0
  0
VISUALSTYLE
  5
37
102
{ACAD_REACTORS
330
29
102
}
330
29
100
AcDbVisualStyle
  2
Linepattern
 70
    14
177
     3
291
     1
 70
    58
 90
        2
176
     1
 90
        2
176
     1
 90
        0
176
     1
 90
        0
176
     1
 40
0.6
176
     1
 40
30.0
176
     1
 62
     7
420
 16777215
176
     1
 90
        1
176
     1
 90
        4
176
     1
 62
     7
176
     1
 62
   257
176
     1
 90
        7
176
     1
 90
        7
176
     1
 40
1.0
176
     1
 90
        8
176
     1
 62
     7
176
     1
 40
1.0
176
     1
 90
        1
176
     1
 90
        6
176
     1
 90
        2
176
     1
 62
     7
176
     1
 90
        5
176
     1
 90
        0
176
     1
 90
        0
176
     1
290
     0
176
     1
 90
        1
176
     1
 40
0.0
176
     1
 90
        0
176
     1
290
     0
176
     1
290
     1
176
     1
290
     1
176
     1
290
     0
176
     1
290
     0
176
     1
290
     0
176
     1
290
     0
176
     1
290
     0
176
     1
290
     0
176
     1
 90
       50
176
     1
 40
0.0
176
     1
 40
1.0
176
     1
 90
        0
176
     1
 62
    18
420
        0
176
     1
 90
       50
176
     1
 90
        3
176
     1
 62
     5
420
      255
176
     1
290
     0
176
     1
 90
       50
176
     1
 90
       50
176
     1
 90
       50
176
     1
290
     0
176
     1
 90
       50
176
     1
 62
   256
176
     0
 40
1.0
176
     0
 90
        2
176
     1
  1
strokes_ogs.tif
176
     1
290
     0
176
     1
 40
1.0
176
     1
 40
1.0
176
     1
  0
VISUALSTYLE
  5
40
102
{ACAD_REACTORS
330
29
102
}
330
29
100
AcDbVisualStyle
  2
OverhangOff
 70
    21
177
     3
291
     1
 70
    58
 90
        2
176
     0
 90
        2
176
     0
 90
        0
176
     0
 90
        0
176
     0
 40
0.6
176
     0
 40
30.0
176
     0
 62
     7
420
 16777215
176
     0
 90
        1
176
     0
 90
        4
176
     0
 62
     7
176
     0
 62
   257
176
     0
 90
        1
176
     0
 90
        1
176
     0
 40
1.0
176
     0
 90
        9
176
     2
 62
     7
176
     0
 40
1.0
176
     0
 90
        1
176
     0
 90
        6
176
     0
 90
        2
176
     0
 62
     7
176
     0
 90
        5
176
     0
 90
        0
176
     0
 90
        0
176
     0
290
     0
176
     0
 90
        1
176
     0
 40
0.0
176
     0
 90
        0
176
     0
290
     0
176
     0
290
     1
176
     0
290
     1
176
     0
290
     0
176
     0
290
     0
176
     0
290
     0
176
     0
290
     0
176
     0
290
     0
176
     0
290
     0
176
     0
 90
       50
176
     0
 40
0.0
176
     0
 40
1.0
176
     0
 90
        0
176
     0
 62
    18
420
        0
176
     0
 90
       50
176
     0
 90
        3
176
     0
 62
     5
420
      255
176
     0
290
     0
176
     0
 90
       50
176
     0
 90
       50
176
     0
 90
       50
176
     0
290
     0
176
     0
 90
       50
176
     0
 62
   256
176
     0
 40
1.0
176
     0
 90
        2
176
     0
  1
strokes_ogs.tif
176
     0
290
     0
176
     0
 40
1.0
176
     0
 40
1.0
176
     0
  0
VISUALSTYLE
  5
33
102
{ACAD_REACTORS
330
29
102
}
330
29
100
AcDbVisualStyle
  2
Realistic
 70
     8
177
     3
291
     0
 70
    58
 90
        2
176
     1
 90
        3
176
     1
 90
        0
176
     1
 90
        2
176
     1
 40
0.6
176
     1
 40
30.0
176
     1
 62
     7
420
 16777215
176
     1
 90
        0
176
     1
 90
        0
176
     1
 62
     7
176
     1
 62
   257
176
     1
 90
        1
176
     1
 90
        1
176
     1
 40
1.0
176
     1
 90
        8
176
     1
 62
   257
176
     1
 40
1.0
176
     1
 90
        1
176
     1
 90
        6
176
     1
 90
        2
176
     1
 62
     7
176
     1
 90
        3
176
     1
 90
        0
176
     1
 90
        0
176
     1
290
     0
176
     1
 90
       13
176
     1
 40
0.0
176
     1
 90
        0
176
     1
290
     0
176
     1
290
     1
176
     1
290
     1
176
     1
290
     0
176
     1
290
     0
176
     1
290
     0
176
     1
290
     0
176
     1
290
     0
176
     1
290
     0
176
     1
 90
       50
176
     1
 40
0.0
176
     1
 40
1.0
176
     1
 90
        0
176
     1
 62
    18
420
        0
176
     1
 90
       50
176
     1
 90
        3
176
     1
 62
     5
420
      255
176
     1
290
     0
176
     1
 90
       50
176
     1
 90
       50
176
     1
 90
       50
176
     1
290
     0
176
     1
 90
       50
176
     1
 62
   256
176
     0
 40
1.0
176
     0
 90
        2
176
     1
  1
strokes_ogs.tif
176
     1
290
     0
176
     1
 40
1.0
176
     1
 40
1.0
176
     1
  0
VISUALSTYLE
  5
3E
102
{ACAD_REACTORS
330
29
102
}
330
29
100
AcDbVisualStyle
  2
Shaded
 70
    27
177
     3
291
     0
 70
    58
 90
        2
176
     1
 90
        2
176
     1
 90
        1
176
     1
 90
        2
176
     1
 40
0.6
176
     1
 40
30.0
176
     1
 62
     7
420
 16777215
176
     1
 90
        0
176
     1
 90
        4
176
     1
 62
     7
176
     1
 62
   257
176
     1
 90
        1
176
     1
 90
        1
176
     1
 40
1.0
176
     1
 90
        8
176
     1
 62
   257
176
     1
 40
1.0
176
     1
 90
        1
176
     1
 90
        6
176
     1
 90
        2
176
     1
 62
     8
420
  7895160
176
     1
 90
        3
176
     1
 90
        0
176
     1
 90
        0
176
     1
290
     0
176
     1
 90
        5
176
     1
 40
0.0
176
     1
 90
        0
176
     1
290
     0
176
     1
290
     1
176
     1
290
     1
176
     1
290
     0
176
     1
290
     0
176
     1
290
     0
176
     1
290
     0
176
     1
290
     0
176
     1
290
     0
176
     1
 90
       50
176
     1
 40
0.0
176
     1
 40
1.0
176
     1
 90
        0
176
     1
 62
    18
420
        0
176
     1
 90
       50
176
     1
 90
        3
176
     1
 62
     5
420
      255
176
     1
290
     0
176
     1
 90
       50
176
     1
 90
       50
176
     1
 90
       50
176
     1
290
     0
176
     1
 90
       50
176
     1
 62
   256
176
     0
 40
1.0
176
     0
 90
        2
176
     1
  1
strokes_ogs.tif
176
     1
290
     0
176
     1
 40
1.0
176
     1
 40
1.0
176
     1
  0
VISUALSTYLE
  5
3D
102
{ACAD_REACTORS
330
29
102
}
330
29
100
AcDbVisualStyle
  2
Shaded with edges
 70
    26
177
     3
291
     0
 70
    58
 90
        2
176
     1
 90
        2
176
     1
 90
        1
176
     1
 90
        2
176
     1
 40
0.6
176
     1
 40
30.0
176
     1
 62
     7
420
 16777215
176
     1
 90
        1
176
     1
 90
        2
176
     1
 62
     7
176
     1
 62
   257
176
     1
 90
        2
176
     1
 90
        1
176
     1
 40
1.0
176
     1
 90
        8
176
     1
 62
   257
176
     1
 40
1.0
176
     1
 90
        1
176
     1
 90
        6
176
     1
 90
        2
176
     1
 62
     7
176
     1
 90
        3
176
     1
 90
        0
176
     1
 90
        0
176
     1
290
     0
176
     1
 90
        5
176
     1
 40
0.0
176
     1
 90
        0
176
     1
290
     0
176
     1
290
     1
176
     1
290
     1
176
     1
290
     0
176
     1
290
     0
176
     1
290
     0
176
     1
290
     0
176
     1
290
     0
176
     1
290
     0
176
     1
 90
       50
176
     1
 40
0.0
176
     1
 40
1.0
176
     1
 90
        0
176
     1
 62
    18
420
        0
176
     1
 90
       50
176
     1
 90
        3
176
     1
 62
     5
420
      255
176
     1
290
     0
176
     1
 90
       50
176
     1
 90
       50
176
     1
 90
       50
176
     1
290
     0
176
     1
 90
       50
176
     1
 62
   256
176
     0
 40
1.0
176
     0
 90
        2
176
     1
  1
strokes_ogs.tif
176
     1
290
     0
176
     1
 40
1.0
176
     1
 40
1.0
176
     1
  0
VISUALSTYLE
  5
3A
102
{ACAD_REACTORS
330
29
102
}
330
29
100
AcDbVisualStyle
  2
Shades of Gray
 70
    23
177
     3
291
     0
 70
    58
 90
        2
176
     1
 90
        2
176
     1
 90
        3
176
     1
 90
        0
176
     1
 40
0.6
176
     1
 40
30.0
176
     1
 62
     7
420
 16777215
176
     1
 90
        2
176
     1
 90
        2
176
     1
 62
     7
176
     1
 62
     7
176
     1
 90
        1
176
     1
 90
        1
176
     1
 40
40.0
176
     1
 90
        8
176
     1
 62
     7
176
     1
 40
1.0
176
     1
 90
        1
176
     1
 90
        6
176
     1
 90
        2
176
     1
 62
     7
176
     1
 90
        3
176
     1
 90
        0
176
     1
 90
        0
176
     1
290
     0
176
     1
 90
        1
176
     1
 40
0.0
176
     1
 90
        0
176
     1
290
     0
176
     1
290
     1
176
     1
290
     1
176
     1
290
     0
176
     1
290
     0
176
     1
290
     0
176
     1
290
     0
176
     1
290
     0
176
     1
290
     0
176
     1
 90
       50
176
     1
 40
0.0
176
     1
 40
1.0
176
     1
 90
        0
176
     1
 62
    18
420
        0
176
     1
 90
       50
176
     1
 90
        3
176
     1
 62
     5
420
      255
176
     1
290
     0
176
     1
 90
       50
176
     1
 90
       50
176
     1
 90
       50
176
     1
290
     0
176
     1
 90
       50
176
     1
 62
   256
176
     0
 40
1.0
176
     0
 90
        2
176
     1
  1
strokes_ogs.tif
176
     1
290
     0
176
     1
 40
1.0
176
     1
 40
1.0
176
     1
  0
VISUALSTYLE
  5
3B
102
{ACAD_REACTORS
330
29
102
}
330
29
100
AcDbVisualStyle
  2
Sketchy
 70
    24
177
     3
291
     0
 70
    58
 90
        1
176
     1
 90
        2
176
     1
 90
        2
176
     1
 90
        0
176
     1
 40
0.6
176
     1
 40
30.0
176
     1
 62
     7
420
 16777215
176
     1
 90
        2
176
     1
 90
        2
176
     1
 62
     7
176
     1
 62
     7
176
     1
 90
        1
176
     1
 90
        1
176
     1
 40
40.0
176
     1
 90
       11
176
     1
 62
     7
176
     1
 40
1.0
176
     1
 90
        1
176
     1
 90
        6
176
     1
 90
        2
176
     1
 62
     7
176
     1
 90
        6
176
     1
 90
        0
176
     1
 90
        0
176
     1
290
     0
176
     1
 90
        1
176
     1
 40
0.0
176
     1
 90
        0
176
     1
290
     0
176
     1
290
     1
176
     1
290
     1
176
     1
290
     0
176
     1
290
     0
176
     1
290
     0
176
     1
290
     0
176
     1
290
     0
176
     1
290
     0
176
     1
 90
       50
176
     1
 40
0.0
176
     1
 40
1.0
176
     1
 90
        0
176
     1
 62
    18
420
        0
176
     1
 90
       50
176
     1
 90
        3
176
     1
 62
     5
420
      255
176
     1
290
     0
176
     1
 90
       50
176
     1
 90
       50
176
     1
 90
       50
176
     1
290
     0
176
     1
 90
       50
176
     1
 62
   256
176
     0
 40
1.0
176
     0
 90
        2
176
     1
  1
strokes_ogs.tif
176
     1
290
     0
176
     1
 40
1.0
176
     1
 40
1.0
176
     1
  0
VISUALSTYLE
  5
36
102
{ACAD_REACTORS
330
29
102
}
330
29
100
AcDbVisualStyle
  2
Thicken
 70
    13
177
     3
291
     1
 70
    58
 90
        2
176
     1
 90
        2
176
     1
 90
        0
176
     1
 90
        0
176
     1
 40
0.6
176
     1
 40
30.0
176
     1
 62
     7
420
 16777215
176
     1
 90
        1
176
     1
 90
        4
176
     1
 62
     7
176
     1
 62
   257
176
     1
 90
        1
176
     1
 90
        1
176
     1
 40
1.0
176
     1
 90
       12
176
     1
 62
     7
176
     1
 40
1.0
176
     1
 90
        1
176
     1
 90
        6
176
     1
 90
        2
176
     1
 62
     7
176
     1
 90
        5
176
     1
 90
        0
176
     1
 90
        0
176
     1
290
     0
176
     1
 90
        1
176
     1
 40
0.0
176
     1
 90
        0
176
     1
290
     0
176
     1
290
     1
176
     1
290
     1
176
     1
290
     0
176
     1
290
     0
176
     1
290
     0
176
     1
290
     0
176
     1
290
     0
176
     1
290
     0
176
     1
 90
       50
176
     1
 40
0.0
176
     1
 40
1.0
176
     1
 90
        0
176
     1
 62
    18
420
        0
176
     1
 90
       50
176
     1
 90
        3
176
     1
 62
     5
420
      255
176
     1
290
     0
176
     1
 90
       50
176
     1
 90
       50
176
     1
 90
       50
176
     1
290
     0
176
     1
 90
       50
176
     1
 62
   256
176
     0
 40
1.0
176
     0
 90
        2
176
     1
  1
strokes_ogs.tif
176
     1
290
     0
176
     1
 40
1.0
176
     1
 40
1.0
176
     1
  0
VISUALSTYLE
  5
30
102
{ACAD_REACTORS
330
29
102
}
330
29
100
AcDbVisualStyle
  2
Wireframe
 70
     5
177
     3
291
     0
 70
    58
 90
        0
176
     1
 90
        2
176
     1
 90
        0
176
     1
 90
        0
176
     1
 40
0.6
176
     1
 40
30.0
176
     1
 62
     7
420
 16777215
176
     1
 90
        1
176
     1
 90
        4
176
     1
 62
     7
176
     1
 62
   257
176
     1
 90
        1
176
     1
 90
        1
176
     1
 40
1.0
176
     1
 90
        0
176
     1
 62
   257
176
     1
 40
1.0
176
     1
 90
        1
176
     1
 90
        6
176
     1
 90
        2
176
     1
 62
     7
176
     1
 90
        3
176
     1
 90
        0
176
     1
 90
        0
176
     1
290
     0
176
     1
 90
        1
176
     1
 40
0.0
176
     1
 90
        0
176
     1
290
     0
176
     1
290
     1
176
     1
290
     1
176
     1
290
     0
176
     1
290
     0
176
     1
290
     0
176
     1
290
     0
176
     1
290
     0
176
     1
290
     0
176
     1
 90
       50
176
     1
 40
0.0
176
     1
 40
1.0
176
     1
 90
        0
176
     1
 62
    18
420
        0
176
     1
 90
       50
176
     1
 90
        3
176
     1
 62
     5
420
      255
176
     1
290
     0
176
     1
 90
       50
176
     1
 90
       50
176
     1
 90
       50
176
     1
290
     0
176
     1
 90
       50
176
     1
 62
   256
176
     0
 40
1.0
176
     0
 90
        2
176
     1
  1
strokes_ogs.tif
176
     1
290
     0
176
     1
 40
1.0
176
     1
 40
1.0
176
     1
  0
VISUALSTYLE
  5
3C
102
{ACAD_REACTORS
330
29
102
}
330
29
100
AcDbVisualStyle
  2
X-Ray
 70
    25
177
     3
291
     0
 70
    58
 90
        2
176
     1
 90
        2
176
     1
 90
        1
176
     1
 90
        1
176
     1
 40
0.5
176
     1
 40
30.0
176
     1
 62
     7
420
 16777215
176
     1
 90
        1
176
     1
 90
        0
176
     1
 62
     7
176
     1
 62
   257
176
     1
 90
        1
176
     1
 90
        1
176
     1
 40
1.0
176
     1
 90
        8
176
     1
 62
     7
176
     1
 40
1.0
176
     1
 90
        1
176
     1
 90
        6
176
     1
 90
        2
176
     1
 62
     7
176
     1
 90
        3
176
     1
 90
        0
176
     1
 90
        0
176
     1
290
     0
176
     1
 90
       13
176
     1
 40
0.0
176
     1
 90
        0
176
     1
290
     0
176
     1
290
     1
176
     1
290
     1
176
     1
290
     0
176
     1
290
     0
176
     1
290
     0
176
     1
290
     0
176
     1
290
     0
176
     1
290
     0
176
     1
 90
       50
176
     1
 40
0.0
176
     1
 40
1.0
176
     1
 90
        0
176
     1
 62
    18
420
        0
176
     1
 90
       50
176
     1
 90
        3
176
     1
 62
     5
420
      255
176
     1
290
     0
176
     1
 90
       50
176
     1
 90
       50
176
     1
 90
       50
176
     1
290
     0
176
     1
 90
       50
176
     1
 62
   256
176
     0
 40
1.0
176
     0
 90
        2
176
     1
  1
strokes_ogs.tif
176
     1
290
     0
176
     1
 40
1.0
176
     1
 40
1.0
176
     1
  0
DICTIONARYVAR
  5
3C6
102
{ACAD_REACTORS
330
78
102
}
330
78
100
DictionaryVariables
280
     0
  1
1:1
  0
DICTIONARYVAR
  5
79
102
{ACAD_REACTORS
330
78
102
}
330
78
100
DictionaryVariables
280
     0
  1
3.500000
  0
DICTIONARYVAR
  5
7A
102
{ACAD_REACTORS
330
78
102
}
330
78
100
DictionaryVariables
280
     0
  1
acadiso.lin
  0
DICTIONARYVAR
  5
3C3
102
{ACAD_REACTORS
330
78
102
}
330
78
100
DictionaryVariables
280
     0
  1
STANDARD
  0
DICTIONARYVAR
  5
3C2
102
{ACAD_REACTORS
330
78
102
}
330
78
100
DictionaryVariables
280
     0
  1
STANDARD
  0
DICTIONARYVAR
  5
3C4
102
{ACAD_REACTORS
330
78
102
}
330
78
100
DictionaryVariables
280
     0
  1
Metric50
  0
DICTIONARYVAR
  5
3C5
102
{ACAD_REACTORS
330
78
102
}
330
78
100
DictionaryVariables
280
     0
  1
Metric50
  0
DICTIONARY
  5
1A
330
19
100
AcDbDictionary
280
     1
281
     1
  3
BUMPTILE
360
1C
  3
DIFFUSETILE
360
1B
  3
OPACITYTILE
360
1F
  3
REFLECTIONTILE
360
1E
  3
REFRACTIONTILE
360
20
  3
SPECULARTILE
360
1D
  0
DICTIONARY
  5
12
330
11
100
AcDbDictionary
280
     1
281
     1
  3
BUMPTILE
360
14
  3
DIFFUSETILE
360
13
  3
OPACITYTILE
360
17
  3
REFLECTIONTILE
360
16
  3
REFRACTIONTILE
360
18
  3
SPECULARTILE
360
15
  0
DICTIONARY
  5
22
330
21
100
AcDbDictionary
280
     1
281
     1
  3
BUMPTILE
360
24
  3
DIFFUSETILE
360
23
  3
OPACITYTILE
360
27
  3
REFLECTIONTILE
360
26
  3
REFRACTIONTILE
360
28
  3
SPECULARTILE
360
25
  0
DICTIONARY
  5
516
330
65
100
AcDbDictionary
280
     1
281
     1
  3
ACAD_ROUNDTRIP_2008_TABLESTYLE_CELLSTYLEMAP
360
517
  0
DICTIONARY
  5
518
330
9F
100
AcDbDictionary
280
     1
281
     1
  3
ACAD_ROUNDTRIP_2008_TABLESTYLE_CELLSTYLEMAP
360
519
  0
XRECORD
  5
1C
102
{ACAD_REACTORS
330
1A
102
}
330
1A
100
AcDbXrecord
280
     1
270
     1
271
     1
  0
XRECORD
  5
1B
102
{ACAD_REACTORS
330
1A
102
}
330
1A
100
AcDbXrecord
280
     1
270
     1
271
     1
  0
XRECORD
  5
1F
102
{ACAD_REACTORS
330
1A
102
}
330
1A
100
AcDbXrecord
280
     1
270
     1
271
     1
  0
XRECORD
  5
1E
102
{ACAD_REACTORS
330
1A
102
}
330
1A
100
AcDbXrecord
280
     1
270
     1
271
     1
  0
XRECORD
  5
20
102
{ACAD_REACTORS
330
1A
102
}
330
1A
100
AcDbXrecord
280
     1
270
     1
271
     1
  0
XRECORD
  5
1D
102
{ACAD_REACTORS
330
1A
102
}
330
1A
100
AcDbXrecord
280
     1
270
     1
271
     1
  0
XRECORD
  5
14
102
{ACAD_REACTORS
330
12
102
}
330
12
100
AcDbXrecord
280
     1
270
     1
271
     1
  0
XRECORD
  5
13
102
{ACAD_REACTORS
330
12
102
}
330
12
100
AcDbXrecord
280
     1
270
     1
271
     1
  0
XRECORD
  5
17
102
{ACAD_REACTORS
330
12
102
}
330
12
100
AcDbXrecord
280
     1
270
     1
271
     1
  0
XRECORD
  5
16
102
{ACAD_REACTORS
330
12
102
}
330
12
100
AcDbXrecord
280
     1
270
     1
271
     1
  0
XRECORD
  5
18
102
{ACAD_REACTORS
330
12
102
}
330
12
100
AcDbXrecord
280
     1
270
     1
271
     1
  0
XRECORD
  5
15
102
{ACAD_REACTORS
330
12
102
}
330
12
100
AcDbXrecord
280
     1
270
     1
271
     1
  0
XRECORD
  5
24
102
{ACAD_REACTORS
330
22
102
}
330
22
100
AcDbXrecord
280
     1
270
     1
271
     1
  0
XRECORD
  5
23
102
{ACAD_REACTORS
330
22
102
}
330
22
100
AcDbXrecord
280
     1
270
     1
271
     1
  0
XRECORD
  5
27
102
{ACAD_REACTORS
330
22
102
}
330
22
100
AcDbXrecord
280
     1
270
     1
271
     1
  0
XRECORD
  5
26
102
{ACAD_REACTORS
330
22
102
}
330
22
100
AcDbXrecord
280
     1
270
     1
271
     1
  0
XRECORD
  5
28
102
{ACAD_REACTORS
330
22
102
}
330
22
100
AcDbXrecord
280
     1
270
     1
271
     1
  0
XRECORD
  5
25
102
{ACAD_REACTORS
330
22
102
}
330
22
100
AcDbXrecord
280
     1
270
     1
271
     1
  0
CELLSTYLEMAP
  5
517
102
{ACAD_REACTORS
330
516
102
}
330
516
100
AcDbCellStyleMap
 90
        3
300
CELLSTYLE
  1
TABLEFORMAT_BEGIN
 90
        5
170
     1
 91
        0
 92
    32768
 62
   257
 93
        1
300
CONTENTFORMAT
  1
CONTENTFORMAT_BEGIN
 90
        0
 91
        0
 92
      512
 93
        0
300

 40
0.0
140
1.0
 94
        5
 62
     0
340
55
144
6.0
309
CONTENTFORMAT_END
171
     1
301
MARGIN
  1
CELLMARGIN_BEGIN
 40
1.5
 40
1.5
 40
1.5
 40
1.5
 40
4.5
 40
4.5
309
CELLMARGIN_END
 94
        6
 95
        1
302
GRIDFORMAT
  1
GRIDFORMAT_BEGIN
 90
        0
 91
        1
 62
     0
 92
       -2
340
0
 93
        0
 40
1.125
309
GRIDFORMAT_END
 95
        2
302
GRIDFORMAT
  1
GRIDFORMAT_BEGIN
 90
        0
 91
        1
 62
     0
 92
       -2
340
0
 93
        0
 40
1.125
309
GRIDFORMAT_END
 95
        4
302
GRIDFORMAT
  1
GRIDFORMAT_BEGIN
 90
        0
 91
        1
 62
     0
 92
       -2
340
0
 93
        0
 40
1.125
309
GRIDFORMAT_END
 95
        8
302
GRIDFORMAT
  1
GRIDFORMAT_BEGIN
 90
        0
 91
        1
 62
     0
 92
       -2
340
0
 93
        0
 40
1.125
309
GRIDFORMAT_END
 95
       16
302
GRIDFORMAT
  1
GRIDFORMAT_BEGIN
 90
        0
 91
        1
 62
     0
 92
       -2
340
0
 93
        0
 40
1.125
309
GRIDFORMAT_END
 95
       32
302
GRIDFORMAT
  1
GRIDFORMAT_BEGIN
 90
        0
 91
        1
 62
     0
 92
       -2
340
0
 93
        0
 40
1.125
309
GRIDFORMAT_END
309
TABLEFORMAT_END
  1
CELLSTYLE_BEGIN
 90
        1
 91
        1
300
_TITLE
309
CELLSTYLE_END
300
CELLSTYLE
  1
TABLEFORMAT_BEGIN
 90
        5
170
     1
 91
        0
 92
        0
 62
   257
 93
        1
300
CONTENTFORMAT
  1
CONTENTFORMAT_BEGIN
 90
        0
 91
        0
 92
      512
 93
        0
300

 40
0.0
140
1.0
 94
        5
 62
     0
340
55
144
4.5
309
CONTENTFORMAT_END
171
     1
301
MARGIN
  1
CELLMARGIN_BEGIN
 40
1.5
 40
1.5
 40
1.5
 40
1.5
 40
4.5
 40
4.5
309
CELLMARGIN_END
 94
        6
 95
        1
302
GRIDFORMAT
  1
GRIDFORMAT_BEGIN
 90
        0
 91
        1
 62
     0
 92
       -2
340
0
 93
        0
 40
1.125
309
GRIDFORMAT_END
 95
        2
302
GRIDFORMAT
  1
GRIDFORMAT_BEGIN
 90
        0
 91
        1
 62
     0
 92
       -2
340
0
 93
        0
 40
1.125
309
GRIDFORMAT_END
 95
        4
302
GRIDFORMAT
  1
GRIDFORMAT_BEGIN
 90
        0
 91
        1
 62
     0
 92
       -2
340
0
 93
        0
 40
1.125
309
GRIDFORMAT_END
 95
        8
302
GRIDFORMAT
  1
GRIDFORMAT_BEGIN
 90
        0
 91
        1
 62
     0
 92
       -2
340
0
 93
        0
 40
1.125
309
GRIDFORMAT_END
 95
       16
302
GRIDFORMAT
  1
GRIDFORMAT_BEGIN
 90
        0
 91
        1
 62
     0
 92
       -2
340
0
 93
        0
 40
1.125
309
GRIDFORMAT_END
 95
       32
302
GRIDFORMAT
  1
GRIDFORMAT_BEGIN
 90
        0
 91
        1
 62
     0
 92
       -2
340
0
 93
        0
 40
1.125
309
GRIDFORMAT_END
309
TABLEFORMAT_END
  1
CELLSTYLE_BEGIN
 90
        2
 91
        1
300
_HEADER
309
CELLSTYLE_END
300
CELLSTYLE
  1
TABLEFORMAT_BEGIN
 90
        5
170
     1
 91
        0
 92
        0
 62
   257
 93
        1
300
CONTENTFORMAT
  1
CONTENTFORMAT_BEGIN
 90
        0
 91
        0
 92
      512
 93
        0
300

 40
0.0
140
1.0
 94
        2
 62
     0
340
55
144
4.5
309
CONTENTFORMAT_END
171
     1
301
MARGIN
  1
CELLMARGIN_BEGIN
 40
1.5
 40
1.5
 40
1.5
 40
1.5
 40
4.5
 40
4.5
309
CELLMARGIN_END
 94
        6
 95
        1
302
GRIDFORMAT
  1
GRIDFORMAT_BEGIN
 90
        0
 91
        1
 62
     0
 92
       -2
340
0
 93
        0
 40
1.125
309
GRIDFORMAT_END
 95
        2
302
GRIDFORMAT
  1
GRIDFORMAT_BEGIN
 90
        0
 91
        1
 62
     0
 92
       -2
340
0
 93
        0
 40
1.125
309
GRIDFORMAT_END
 95
        4
302
GRIDFORMAT
  1
GRIDFORMAT_BEGIN
 90
        0
 91
        1
 62
     0
 92
       -2
340
0
 93
        0
 40
1.125
309
GRIDFORMAT_END
 95
        8
302
GRIDFORMAT
  1
GRIDFORMAT_BEGIN
 90
        0
 91
        1
 62
     0
 92
       -2
340
0
 93
        0
 40
1.125
309
GRIDFORMAT_END
 95
       16
302
GRIDFORMAT
  1
GRIDFORMAT_BEGIN
 90
        0
 91
        1
 62
     0
 92
       -2
340
0
 93
        0
 40
1.125
309
GRIDFORMAT_END
 95
       32
302
GRIDFORMAT
  1
GRIDFORMAT_BEGIN
 90
        0
 91
        1
 62
     0
 92
       -2
340
0
 93
        0
 40
1.125
309
GRIDFORMAT_END
309
TABLEFORMAT_END
  1
CELLSTYLE_BEGIN
 90
        3
 91
        2
300
_DATA
309
CELLSTYLE_END
  0
CELLSTYLEMAP
  5
519
102
{ACAD_REACTORS
330
518
102
}
330
518
100
AcDbCellStyleMap
 90
        3
300
CELLSTYLE
  1
TABLEFORMAT_BEGIN
 90
        5
170
     1
 91
        0
 92
    32768
 62
   257
 93
        1
300
CONTENTFORMAT
  1
CONTENTFORMAT_BEGIN
 90
        0
 91
        0
 92
      512
 93
        0
300

 40
0.0
140
1.0
 94
        5
 62
     0
340
55
144
6.0
309
CONTENTFORMAT_END
171
     1
301
MARGIN
  1
CELLMARGIN_BEGIN
 40
1.5
 40
1.5
 40
1.5
 40
1.5
 40
4.5
 40
4.5
309
CELLMARGIN_END
 94
        6
 95
        1
302
GRIDFORMAT
  1
GRIDFORMAT_BEGIN
 90
        0
 91
        1
 62
     0
 92
       -2
340
5B
 93
        0
 40
1.125
309
GRIDFORMAT_END
 95
        2
302
GRIDFORMAT
  1
GRIDFORMAT_BEGIN
 90
        0
 91
        1
 62
     0
 92
       -2
340
5B
 93
        0
 40
1.125
309
GRIDFORMAT_END
 95
        4
302
GRIDFORMAT
  1
GRIDFORMAT_BEGIN
 90
        0
 91
        1
 62
     0
 92
       -2
340
5B
 93
        0
 40
1.125
309
GRIDFORMAT_END
 95
        8
302
GRIDFORMAT
  1
GRIDFORMAT_BEGIN
 90
        0
 91
        1
 62
     0
 92
       -2
340
5B
 93
        0
 40
1.125
309
GRIDFORMAT_END
 95
       16
302
GRIDFORMAT
  1
GRIDFORMAT_BEGIN
 90
        0
 91
        1
 62
     0
 92
       -2
340
5B
 93
        0
 40
1.125
309
GRIDFORMAT_END
 95
       32
302
GRIDFORMAT
  1
GRIDFORMAT_BEGIN
 90
        0
 91
        1
 62
     0
 92
       -2
340
5B
 93
        0
 40
1.125
309
GRIDFORMAT_END
309
TABLEFORMAT_END
  1
CELLSTYLE_BEGIN
 90
        1
 91
        1
300
_TITLE
309
CELLSTYLE_END
300
CELLSTYLE
  1
TABLEFORMAT_BEGIN
 90
        5
170
     1
 91
        0
 92
        0
 62
   257
 93
        1
300
CONTENTFORMAT
  1
CONTENTFORMAT_BEGIN
 90
        0
 91
        0
 92
      512
 93
        0
300

 40
0.0
140
1.0
 94
        5
 62
     0
340
55
144
4.5
309
CONTENTFORMAT_END
171
     1
301
MARGIN
  1
CELLMARGIN_BEGIN
 40
1.5
 40
1.5
 40
1.5
 40
1.5
 40
4.5
 40
4.5
309
CELLMARGIN_END
 94
        6
 95
        1
302
GRIDFORMAT
  1
GRIDFORMAT_BEGIN
 90
        0
 91
        1
 62
     0
 92
       -2
340
5B
 93
        0
 40
1.125
309
GRIDFORMAT_END
 95
        2
302
GRIDFORMAT
  1
GRIDFORMAT_BEGIN
 90
        0
 91
        1
 62
     0
 92
       -2
340
5B
 93
        0
 40
1.125
309
GRIDFORMAT_END
 95
        4
302
GRIDFORMAT
  1
GRIDFORMAT_BEGIN
 90
        0
 91
        1
 62
     0
 92
       -2
340
5B
 93
        0
 40
1.125
309
GRIDFORMAT_END
 95
        8
302
GRIDFORMAT
  1
GRIDFORMAT_BEGIN
 90
        0
 91
        1
 62
     0
 92
       -2
340
5B
 93
        0
 40
1.125
309
GRIDFORMAT_END
 95
       16
302
GRIDFORMAT
  1
GRIDFORMAT_BEGIN
 90
        0
 91
        1
 62
     0
 92
       -2
340
5B
 93
        0
 40
1.125
309
GRIDFORMAT_END
 95
       32
302
GRIDFORMAT
  1
GRIDFORMAT_BEGIN
 90
        0
 91
        1
 62
     0
 92
       -2
340
5B
 93
        0
 40
1.125
309
GRIDFORMAT_END
309
TABLEFORMAT_END
  1
CELLSTYLE_BEGIN
 90
        2
 91
        1
300
_HEADER
309
CELLSTYLE_END
300
CELLSTYLE
  1
TABLEFORMAT_BEGIN
 90
        5
170
     1
 91
        0
 92
        0
 62
   257
 93
        1
300
CONTENTFORMAT
  1
CONTENTFORMAT_BEGIN
 90
        0
 91
        0
 92
      512
 93
        0
300

 40
0.0
140
1.0
 94
        2
 62
     0
340
8D
144
4.5
309
CONTENTFORMAT_END
171
     1
301
MARGIN
  1
CELLMARGIN_BEGIN
 40
1.5
 40
1.5
 40
1.5
 40
1.5
 40
4.5
 40
4.5
309
CELLMARGIN_END
 94
        6
 95
        1
302
GRIDFORMAT
  1
GRIDFORMAT_BEGIN
 90
        0
 91
        1
 62
     0
 92
       -2
340
5B
 93
        0
 40
1.125
309
GRIDFORMAT_END
 95
        2
302
GRIDFORMAT
  1
GRIDFORMAT_BEGIN
 90
        0
 91
        1
 62
     0
 92
       -2
340
5B
 93
        0
 40
1.125
309
GRIDFORMAT_END
 95
        4
302
GRIDFORMAT
  1
GRIDFORMAT_BEGIN
 90
        0
 91
        1
 62
     0
 92
       -2
340
5B
 93
        0
 40
1.125
309
GRIDFORMAT_END
 95
        8
302
GRIDFORMAT
  1
GRIDFORMAT_BEGIN
 90
        0
 91
        1
 62
     0
 92
       -2
340
5B
 93
        0
 40
1.125
309
GRIDFORMAT_END
 95
       16
302
GRIDFORMAT
  1
GRIDFORMAT_BEGIN
 90
        0
 91
        1
 62
     0
 92
       -2
340
5B
 93
        0
 40
1.125
309
GRIDFORMAT_END
 95
       32
302
GRIDFORMAT
  1
GRIDFORMAT_BEGIN
 90
        0
 91
        1
 62
     0
 92
       -2
340
5B
 93
        0
 40
1.125
309
GRIDFORMAT_END
309
TABLEFORMAT_END
  1
CELLSTYLE_BEGIN
 90
        3
 91
        2
300
_DATA
309
CELLSTYLE_END
  0
ENDSEC
  0
SECTION
  2
ACDSDATA
 70
     2
 71
     8
  0
ACDSSCHEMA
 90
        0
  1
AcDb_Thumbnail_Schema
  2
AcDbDs::ID
280
    10
 91
        8
  2
Thumbnail_Data
280
    15
 91
        0
101
ACDSRECORD
 95
        0
 90
        1
  2
AcDbDs::TreatedAsObjectData
280
     1
291
     1
101
ACDSRECORD
 95
        0
 90
        2
  2
AcDbDs::Legacy
280
     1
291
     1
101
ACDSRECORD
  1
AcDbDs::ID
 90
        3
  2
AcDs:Indexable
280
     1
291
     1
101
ACDSRECORD
  1
AcDbDs::ID
 90
        4
  2
AcDbDs::HandleAttribute
280
     7
282
     1
  0
ACDSSCHEMA
 90
        1
  1
AcDbDs::TreatedAsObjectDataSchema
  2
AcDbDs::TreatedAsObjectData
280
     1
 91
        0
  0
ACDSSCHEMA
 90
        2
  1
AcDbDs::LegacySchema
  2
AcDbDs::Legacy
280
     1
 91
        0
  0
ACDSSCHEMA
 90
        3
  1
AcDbDs::IndexedPropertySchema
  2
AcDs:Indexable
280
     1
 91
        0
  0
ACDSSCHEMA
 90
        4
  1
AcDbDs::HandleAttributeSchema
  2
AcDbDs::HandleAttribute
280
     7
 91
        1
284
     1
  0
ACDSRECORD
 90
        0
  2
AcDbDs::ID
280
    10
320
73
  2
Thumbnail_Data
280
    15
 94
     1865
310
89504E470D0A1A0A0000000D494844520000010000000065080300000095E2CD0900000300504C5445212830FFFFFF2128300000000000000000000000000000000000000000000000000000330000660000990000CC0000FF0033000033330033660033990033CC0033FF0066000066330066660066990066CC0066FF0099
310
000099330099660099990099CC0099FF00CC0000CC3300CC6600CC9900CCCC00CCFF00FF0000FF3300FF6600FF9900FFCC00FFFF3300003300333300663300993300CC3300FF3333003333333333663333993333CC3333FF3366003366333366663366993366CC3366FF3399003399333399663399993399CC3399FF33CC00
310
33CC3333CC6633CC9933CCCC33CCFF33FF0033FF3333FF6633FF9933FFCC33FFFF6600006600336600666600996600CC6600FF6633006633336633666633996633CC6633FF6666006666336666666666996666CC6666FF6699006699336699666699996699CC6699FF66CC0066CC3366CC6666CC9966CCCC66CCFF66FF0066
310
FF3366FF6666FF9966FFCC66FFFF9900009900339900669900999900CC9900FF9933009933339933669933999933CC9933FF9966009966339966669966999966CC9966FF9999009999339999669999999999CC9999FF99CC0099CC3399CC6699CC9999CCCC99CCFF99FF0099FF3399FF6699FF9999FFCC99FFFFCC0000CC00
310
33CC0066CC0099CC00CCCC00FFCC3300CC3333CC3366CC3399CC33CCCC33FFCC6600CC6633CC6666CC6699CC66CCCC66FFCC9900CC9933CC9966CC9999CC99CCCC99FFCCCC00CCCC33CCCC66CCCC99CCCCCCCCCCFFCCFF00CCFF33CCFF66CCFF99CCFFCCCCFFFFFF0000FF0033FF0066FF0099FF00CCFF00FFFF3300FF3333
310
FF3366FF3399FF33CCFF33FFFF6600FF6633FF6666FF6699FF66CCFF66FFFF9900FF9933FF9966FF9999FF99CCFF99FFFFCC00FFCC33FFCC66FFCC99FFCCCCFFCCFFFFFF00FFFF33FFFF66FFFF99FFFFCCFFFFFF0000000D0D0D1A1A1A2828283535354343435050505D5D5D6B6B6B787878868686939393A1A1A1AEAEAEBB
310
BBBBC9C9C9D6D6D6E4E4E4F1F1F1FFFFFF0000000000000000000000000000000000000000000000000000000000002E4550F1000004044944415478DAED5BDB9683200CCCE7E485FFFFB2BEEF56450249B808D86233674FBBDDAAB5E36418820B6030180C0683C16088E0666119020011FF9FF00DF08FFBCBED1D6187F7C3
310
1BE706CEBF4217365B860008049C485EE2AF10C015902500A26FBB6DB71E012F19DBD73E9FB75FDBB0A007000615387FE1B904DE3B2415B3BD3C1E162E01103C00CE9F68876712805C01A84866D74D10CDEE0BCFF300F4CF1E2FAC76833573005700321C0A38ED613B88DF079E9A037E898048016212E45FEF34417C980744
310
49A0320E1C3B2EE901FB88876498039E08E551209241248587CC053C3F3E07680488E9F9DB09508A5A9E0A780F8883D0CA041CC376328AA33AE23B6973FEC6CAFD005F02FA0E64FE8B41150FCD01D20E2A016BF603F21E509503565680EE01B20D3CCF03F6129015000D3D41771E4E38E0FC26AC1B4E00C8369821602F8102
310
01EFFD7C134D209CF6217CEE504A2E7EE32A017AA07D75C1E5461D0C4102CE19969A3C25D3F546DD4F80DB2F84540219D72C5F91AC02304952B401132E7FF8B2B309C03602FA3C80A84C9C7CD56B6C4C07266F82E230D8EF0158EB0138DF03F2C3A070513A87C1D4035813369E81292570EC030FF000C87900429E800F9960
310
A104603D0FC845E1761384DA1C8049EE0857395987F8A807BC2679009F7CA90478A5DF9E038A51F8BC8AAD1EC0BA274EEFA0E409C08F12706918142DE052D69CED01302708911C107C802DC6A6BD8607CE053C8565028412C09B3CA0A400881450D5118A148011010D1E80BCFBDE4B80D4126B2C813A025EA330D8037853B4
310
D903DA1520288E115FD9831C9D030AC40F980B7C0D01D951405C1D06904FA86D2ED030F7F8360210D8F278B70760FBB0F3F11C709100D213943E4F5A8AA383C67005BC66A1B012A595408680B925A02C8F6B3589CAE2688702F41B326E23405B1E1F4AC018FC9FE2F130625D405780705506284009F72D1DA8A3A9048B7A40
310
749755EAC1C98A4C88C2DBF5013617100E716914A01208A6C475A0F5E9E9996615502000F30490C9108C27E03CA33899C904607676962300E801802B008A0A882A1FC70421AE007536C8096850C099279989C83D317AD830F720B914F30D88AFF3802104E03802AECC06B167364887B2E3C3A4514EFCF3ACE57139074C2260
310
AF6535FCF023932B4C6E6864B7F1DDA800E82740E01C1B08406D967A858091C9AC429182022A08E0898D2C9F752B604A325BE81699D66082645C463599B9EC723CFD8CF8035C64F7E19E5C7EA2A440FA8250A8B0DB08C0020148FACD61A49C45404F0960BA798D09A60A004101102BC05758208005C8CB0460749792164C0A
310
C360F4FF2452D733550052058826C8060D510124BDCF25004713802502F02E026E3665F7F3FFAE6E30180C0683C16030180C0683C16030180C0683C16030180C33F1070799EC260F2BDDB50000000049454E44AE426082
  0
ACDSRECORD
 90
        0
  2
AcDbDs::ID
280
    10
320
6F
  2
Thumbnail_Data
280
    15
 94
     2245
310
89504E470D0A1A0A0000000D4948445200000100000000B5080300000087DCD12600000300504C5445FFFFFFFFFFFFFFFFFF0000000000000000000000000000000000000000000000000000330000660000990000CC0000FF0033000033330033660033990033CC0033FF0066000066330066660066990066CC0066FF0099
310
000099330099660099990099CC0099FF00CC0000CC3300CC6600CC9900CCCC00CCFF00FF0000FF3300FF6600FF9900FFCC00FFFF3300003300333300663300993300CC3300FF3333003333333333663333993333CC3333FF3366003366333366663366993366CC3366FF3399003399333399663399993399CC3399FF33CC00
310
33CC3333CC6633CC9933CCCC33CCFF33FF0033FF3333FF6633FF9933FFCC33FFFF6600006600336600666600996600CC6600FF6633006633336633666633996633CC6633FF6666006666336666666666996666CC6666FF6699006699336699666699996699CC6699FF66CC0066CC3366CC6666CC9966CCCC66CCFF66FF0066
310
FF3366FF6666FF9966FFCC66FFFF9900009900339900669900999900CC9900FF9933009933339933669933999933CC9933FF9966009966339966669966999966CC9966FF9999009999339999669999999999CC9999FF99CC0099CC3399CC6699CC9999CCCC99CCFF99FF0099FF3399FF6699FF9999FFCC99FFFFCC0000CC00
310
33CC0066CC0099CC00CCCC00FFCC3300CC3333CC3366CC3399CC33CCCC33FFCC6600CC6633CC6666CC6699CC66CCCC66FFCC9900CC9933CC9966CC9999CC99CCCC99FFCCCC00CCCC33CCCC66CCCC99CCCCCCCCCCFFCCFF00CCFF33CCFF66CCFF99CCFFCCCCFFFFFF0000FF0033FF0066FF0099FF00CCFF00FFFF3300FF3333
310
FF3366FF3399FF33CCFF33FFFF6600FF6633FF6666FF6699FF66CCFF66FFFF9900FF9933FF9966FF9999FF99CCFF99FFFFCC00FFCC33FFCC66FFCC99FFCCCCFFCCFFFFFF00FFFF33FFFF66FFFF99FFFFCCFFFFFF0000000D0D0D1A1A1A2828283535354343435050505D5D5D6B6B6B787878868686939393A1A1A1AEAEAEBB
310
BBBBC9C9C9D6D6D6E4E4E4F1F1F1FFFFFF000000000000000000000000000000000000000000000000000000000000AD4AB4E4000005804944415478DAED9D5B92E3200C45B51CFD78FFFBC9F72C62BA27B641029947C641E04B75772515C78E4F245D241E4D7F1EDEE80F3DBA010000000000000000000000000000000000
310
00000000000044EDB554EB015060B75D3C93AF30FFFC1CADF89D6C35A72C1EBB55DECCC7007EEEAD0200B702607D4AF1CE70DFBF97FF7D6918003E019CDF3211C78FBA00B004A0DFA900108FB480FD936DE2D6E3A600C4EEC095167009E0DF2B0E5C800F572F5840D11C5A01D05800754130F9F2A900608620E85BF69C5940
310
FC851FCE11E2C7DC32C82C22C2950B9002400D00D829804806958F9FB1308E0107B2AB3018CB601233CE987F3C60072A70CA20EFDD92A377220110C75D9A820B1800F627DB41FE38C4830B88CF499CB5808A6E906101FB992902101DE24506B99C0B5402482EC090C1B965303600D911E2A3077984CD9565700F7F69D73856
310
865C32E418008B20286FD508824666640388C3DF79E9E3581EAE0294A880B829CA02A01C80D8053400993B28005ED2E1A4F2934D87D3131DDD02AB1E90B30076630121313DCDFEE81E0A17A0F54A6290C12619944E1C3D7D3B7FA420DD16205CC56B5154A90085325209009700F010004106294E86423FC70040392928E702
310
3AE4895C405C668005E89C8D55A40E0048F704530B4800700940D0DD3DF48E0010725CCB022A2AE412009500BCFBA21B8F02D0960B488BAE8870AA77A587418205A4C5F8FB0148D9B105E9A53EDB6BFF65EBF88A53260FCE53BF1C5A0055D702A62F8A5EBAC092006436981B1BE41E00321D4EA2C6A6AB4D432D80C2D8602E
310
668792588B055403A0F100743A6C5A406569D400A0FB4A3A2DF45014AD96C1C618B08F81333973816A196CCCE3BA64708EB1C1FEB2B867196C7281AE20F84000BA2AACDE6C0208C7B9037044AB3E0B50F8360B16B3D13173600154DBCC2932650B8820FB2B89B50158AB286A677ECF1A1B5C351BBC05C07A3248DC1203A692
310
41FE8205B896C1FA71813A128BCA602380DC29D95B0CE82D8AF203B3C1D620B8A40C7ED015F60C80FCC9E0972DE01E17984806EF51813E191C0100320819ACD02C14451900501445511445D10F7301F62683288A367784F8230B584105962E8A46F3C4F5FCFF7600D53268CC8A1B03609FC920262C12FF170BB065D013003D
310
494A5840A30AD4CAE0780BA80E82EBC920A6C8F47584CE39BF612D71BCC086783219ACAE092A00728571E4E8AB02E03C80F0E75C715EB76ED09F0C76594094C1C989EEC5758307001AAE02F767836939E10132A800909C6D3C2580F586C6A6DA3E6E81A228BBB3001D04D375836F3E6260A42D06E477202363DDE06819AC5D
310
37D804402F07740E40AD1BBCDE4CADCD02E29D06927498665B3071690BE64E52EC3306D46B1664F0E9324869D736E70C135785B34298034062A973A9289ACF058EBD53DEA7F1910CE95DDF4C006A07A11E00E75EAA0E164E0A0BE0B05D9CB680DE354396059CBBAACDB46EB07A5C80938208E55D80260000195C59066FAA08
310
4D2883E966A2FB58590F80CCD8A03130C26E6A8239007136D85F12BB9C21B25FC60B00B2D3E17B0038AA09E60647BB5D20B3BDBEC3B1C13BABC25304C1B1EDC7ECD503D996EF089D4291DF7FF40900D8038028E713790B65C6B19222B7B511735AE83CB763CFC4C90840D45BF81200B600E4B67C21794364FF83059DE17102
310
20A85F7CEC8099A23680CBB52415002805C026008E2FFF6D00A40050850BF0872E60047DAF7385EF4B8769D1B2783AD891748555DF6A9321F84B00F468955E1BC5C616E19C4E7AA900400900BDC7E44000AC7735B53F8A3EEE0300341AC0C818207629E627E602A5763F80A91A000000000000000000000000000000000000
310
00000000000000000000000000000000000000000000000000000000E4DFB354EB00F08C060000000000000000000000000000000000000000F04C000F6F8F07F017EF4CF7E35F84642D0000000049454E44AE426082
  0
ACDSRECORD
 90
        0
  2
AcDbDs::ID
280
    10
320
77
  2
Thumbnail_Data
280
    15
 94
     2810
310
89504E470D0A1A0A0000000D4948445200000100000000B5080300000087DCD12600000300504C5445FFFFFFFFFFFFFFFFFF0000000000000000000000000000000000000000000000000000330000660000990000CC0000FF0033000033330033660033990033CC0033FF0066000066330066660066990066CC0066FF0099
310
000099330099660099990099CC0099FF00CC0000CC3300CC6600CC9900CCCC00CCFF00FF0000FF3300FF6600FF9900FFCC00FFFF3300003300333300663300993300CC3300FF3333003333333333663333993333CC3333FF3366003366333366663366993366CC3366FF3399003399333399663399993399CC3399FF33CC00
310
33CC3333CC6633CC9933CCCC33CCFF33FF0033FF3333FF6633FF9933FFCC33FFFF6600006600336600666600996600CC6600FF6633006633336633666633996633CC6633FF6666006666336666666666996666CC6666FF6699006699336699666699996699CC6699FF66CC0066CC3366CC6666CC9966CCCC66CCFF66FF0066
310
FF3366FF6666FF9966FFCC66FFFF9900009900339900669900999900CC9900FF9933009933339933669933999933CC9933FF9966009966339966669966999966CC9966FF9999009999339999669999999999CC9999FF99CC0099CC3399CC6699CC9999CCCC99CCFF99FF0099FF3399FF6699FF9999FFCC99FFFFCC0000CC00
310
33CC0066CC0099CC00CCCC00FFCC3300CC3333CC3366CC3399CC33CCCC33FFCC6600CC6633CC6666CC6699CC66CCCC66FFCC9900CC9933CC9966CC9999CC99CCCC99FFCCCC00CCCC33CCCC66CCCC99CCCCCCCCCCFFCCFF00CCFF33CCFF66CCFF99CCFFCCCCFFFFFF0000FF0033FF0066FF0099FF00CCFF00FFFF3300FF3333
310
FF3366FF3399FF33CCFF33FFFF6600FF6633FF6666FF6699FF66CCFF66FFFF9900FF9933FF9966FF9999FF99CCFF99FFFFCC00FFCC33FFCC66FFCC99FFCCCCFFCCFFFFFF00FFFF33FFFF66FFFF99FFFFCCFFFFFF0000000D0D0D1A1A1A2828283535354343435050505D5D5D6B6B6B787878868686939393A1A1A1AEAEAEBB
310
BBBBC9C9C9D6D6D6E4E4E4F1F1F1FFFFFF000000000000000000000000000000000000000000000000000000000000AD4AB4E4000007B54944415478DAED9D5B96E3200C446B39F593FDEFA7BF6711D39DC42081F003831F583E7366D23D496CAE112A242CF0EFE107FEE1D1870370000EC001380007E0001C800370000EC0
310
01380007E0001C80387E863A6A00BC063AEA00A4BF792D76A8DF7790BF7FA6E3EFA7F5C76BE3A9D67F6E1F80DF666C02A08FAD00689E8AD37FD8ADFEBBC4F7C97A00A00430DDD7CFEF642BDFBF7AC9F6A3AA071800C2394B00F8BD2076EA015400DE5D2200C074693980663DC0FCAAB407B02B004A0053ABBFD62EDB9C0240
310
F6628EC802002C00F87B47F73140343BF44DE43D00A2DD58DD2366C7002E8E01E80560D3D06CDE7FC5E47E5EA0EEAA2A8EAB0118E8384908C9310CC15994ADE0B242487801C4716A710C1003187603E07900C838345B639BF4065A090A3706E13DE6017C3E2635D7D47FD4CFF11D9FEBFA4A935E6E5000103280938B0CB24F
310
00806A3F56F7800800E2444274400200C39B3B02A0EE015FD5C968EF88009404608D176032A98878C5CFB1D572E4E93F06C4FBCEF81AF136350010DA0479EBE339A04D4009B46374C0BC94496472231DC0FB08212AB37021543C28FE1E4D08A58E3078BFE035216D3B4AA50B4784AA84500010C770D9F6645E3D3F1B3C1300
310
533718C7F93815B6E20142000871101B9E2A8A69E8D70DC91450DAD9D297470A210A75F37EAD4C4001803949FE7EB7BCFA1C8000C6521464FABEDE0111218492367D1AF2421602297C3B0D63324D40C795740F40543F3D0322A9100A6A4404448309AC0550326BD304609A0079500FD82484B03E0478D788D0CAA0964784F8
310
D888901901951E2FA615C2A8DFB407E45AE4C0D4987676D9381E0188844AE3881073E9B0570889BC00841F94911A4C52261F0145C000441E292F4F8751CCB098AD4E7A006276B6716204B21B230A9E642E8000200D95CEF6800840068426E6AB01402A87B60058CC7F59B9C10D99C21C0011F59ED21F96E1435E809E973704
310
2032C3F11FD103CCAC9029E6970128706B4DC0BC4527A5C6EA005892634344C8E80138178012CEFD85504B13C8E5C4B2E0F80A20B24AAE6C3CD5EACF1D9A1CDD3E07B85D6A6C55486C1C002A22849935429FD9E85E00E9741873AA294DC91E921902EC950F9F15225835DCAD7283D103AC03705C6A2C243D28D29D1180E1FD
310
F60080423E3F01E81F1142B6468822306AAD13DC0DE07C13D89117A80170F988D0CAAB1AC10BEC10425501A13184506D44F4D242A87E0CA8D001C588106F01803D008825C96B01E8F31F0B0022F9D90A408ED388845E02002A1ADE04807EC9A100703B00E85CE2D15E60141D50AD040701509D127B77BF072F964E33F90F15
310
422DBDC09D8410AA56080E2484764784AE28842A1F9CC456413C8A106A0EA04A08E13C21B4E949318F088D1811FA5541FCF9796E4488BBDCE0F54C80558360531DF015423C6B0CB8A310D262E4FE00360BA1960058E906CF14426301601500B4330117422E84360AA12935464F8D3D3822D42135C69B00C060A9315685C406
310
4A8DD15363B74C8D9D1A111A45073C5D08791DA19A1E502D02461442EDBCC092100A8B377B0330EB29C652427621A503845078A8A64B4C104C4EA4CA07C9A5C2FAB1AA2375C0B434E90800B27E40F25296773A540885A7637A4785C51340104FB68708540300A810426ABDFED93AA003001742F78A08ED912B03448432634D
310
9F77E03455415662E6B226C05D00741914243584E403E203294103802CBC279DA9082195AAC894EA08452F00CAAFE8E8062BA6C35A2E84E7AC75953C61023980521DA114003A01A83101D67B810D758404000C0DA05047E82813A89B0EBB10F288D0007B8CEC980BD427462EAE03E23A58591389D3DB5A0048CAEAC22AAE6B
310
C403C2057406C0AC888AA81C999603DE595718AA1E35F55CDC00708414A6AAF14BA5EED824390A552B1934422F460F40C7C2CA446A02490F084F8F1B3D60138DCC04A02B36523E8D613D3E7FD418909A403E06D88584B68F0148CBAB974D801D4D60BB173009708717A0EB801BE90060ACB5C2952690860456D45ABD494084
310
49454130DD8AC906A087F41B0120320062C72D290E170160050073CD6F613AAC2A52A35F11951C00F212DBB9172899004A6B485EB1C3251121DA112109A0672125E42630DD7AE82724CCEAF2954A50D36301C0D4EAEF7D38222628A63FF11F36039009DD746F0D2DFF4451F62BD611F280C80385D0402131CF0EDB5E604D54
310
780F00E6A7A2B1E3A2514814FDDD20F3451162B2DA04002D008B8BA52799D11D40B2480A2AE7D9C6047200CB4B65D9738D9001C008584E007667866C0058D875961DD7086526806C670D11123B13002E941A1BC30BF8E6EB971742C26558DEE31421E4001CC07100449228CF17B502C0B8503DAD5517973CADB86EEAF86239
310
A66C3424FAD9B40794DC27F5F2FA7D0098ED7F554C799401C47DD75644130C2568004836F8520191E4035D00580BE35700401500CC0030224269046DAF09C032012BF0F32AB77F5F0F40966DD13D00C922A9A63DC0002037979589BBD7C21080AA1E001A9BF31514CFC3DCE0DA0BB81100DB9D19138C17F21801E41820CDB3
310
1A800EC9BF92D939B3E530AFE208A09696CC9A000A00F2828A6A72AEDC600F0021DED41F00B7004876548A21A44600907DFBDC2E5AF300968AAA84648F01200B0A9AFB7E35EF01D71E04F31CA4C7039AC60330D0E1A9B10A00CF381C800370000EC001380007E0001C800370000EC0013880670278F8F17800FF0162A658EC
310
96755EE70000000049454E44AE426082
  0
ENDSEC
  0
EOF
